Oops, an error
Loading. Please wait.

Socio tab

version 1
version 1

Whole song

Interactive

9,662 views 1 this week
5 commentsread comments
1 2 3 4 5
x 7
add to favorites
×
Save as Personal and add changes to this tab that will be seen only by you. Learn more ›
×
You can save this tab as Personal to edit and correct it or add notes. All changes will be seen only by you. Learn more »
launch autoscroll
font size
0
reset
how to read this tab
guitar tuner
backing track
0:00
0:00
edit
Autoscroll
slow
fast
+/-
esc
set tempo
stop
Author
Tab Key
//= tremalo
^= wah pedal forward
v= wah pedal down

tuning- B F# B E C# G#

clean
(Play this note for the first 33 seconds of this song)
[---------]
[---------]
[---------]
[---------]
[-0//-----]
[---------]

(Bass comes in at the 8 second mark)
[---------------------------] [-----------------]x5
[---------------------------] [-----------------]
[---------------------------] [-----------------]
[-77/(0)-77-77-7-9-10-12-77-] [-77-7-9-10-12-77-]


clean
(At the 33 second mark play this)
[-------------------------------------------------------------]
[-------------------------------------------------------------]
[-9//------------------10//--------9//--------9//---------7//-]
[-----------7//-----------------------------------------------]
[-------------------------------------------------------------]
[-------------------------------------------------------------]


dist.
[--------------------------------------------------]x2        [---------]
[--------------------------------------------------]last time [---------]
[--------------------------------------------------]play this [---------]
[-----------15-15-15-15/10-10-10-10-12-12-12/5-7-7-] at the   [---------]
[-----------15-15-15-15/10-10-10-10-12-12-12/5-7-7-]  end     [-----7-5-]
[-7-9-10-12-15-15-15-15/10-10-10-10-12-12-12/5-7-7-]          [-7-9-----]


[---------------------------------------------------------------------------------------------------------------]
[---------------------------------------------------------------------------------------------------------------]
[-9//---7//---10//---9//---9//---------10//---9//---9//---------10//---9//---9//---7//---10//---9//---9//---7//-]
[--------------------------------7//----------------------7//---------------------------------------------------]
[---------------------------------------------------------------------------------------------------------------]
[---------------------------------------------------------------------------------------------------------------]

dist.
[--------------------------------------------------]x2        [---------]
[--------------------------------------------------]last time [---------]
[--------------------------------------------------]play this [---------]
[-----------15-15-15-15/10-10-10-10-12-12-12/5-7-7-] at the   [---------]
[-----------15-15-15-15/10-10-10-10-12-12-12/5-7-7-]  end     [-----7-5-]
[-7-9-10-12-15-15-15-15/10-10-10-10-12-12-12/5-7-7-]          [-7-9-----]

[-------------------------------------------------------------------------------------------------------------------------]
[-------------------------------------------------------------------------------------------------------------------------]
[-------------------------------------------------------------------------------------------------------------------------]
[-15151515151515/10101010101010/121212121212/55/7777-----------15151515151515/10101010101010/121212121212/55/7777---------]
[-15151515151515/10101010101010/121212121212/55/7777-----------15151515151515/10101010101010/121212121212/55/7777-----7-5-]
[-15151515151515/10101010101010/121212121212/55/7777-7-9-10-12-15151515151515/10101010101010/121212121212/55/7777-7-9-----]


              Solo
[------------------------------------------------------------------------------------19-15-]
[--------------------------------17~--------------------------17~--------------------------]
[------------------------------------17-16~~-9-12--16~~-12-9~~----17-16~-9-12--16~~--------]
[------------------------------------------------------------------------------------------]
[----------0^v^v^v^v^v^v0^^^^^v------------------------------------------------------------]
[------------------------------------------------------------------------------------------]
        wah....................


[------------------------------------------------------------]
[------------------------------------------------------------]
[------------------------------------------------------------]
[-----------15-15-15-15/10-10-10-10-12-12-12/5-7-7-----------]
[-----------15-15-15-15/10-10-10-10-12-12-12/5-7-7-----------]
[-12-10-9-7-15-15-15-15/10-10-10-10-12-12-12/5-7-7-7-9-10-12-]


guitar 1
[-------------------------------------------------------------------------------------------------------------------------|
[-------------------------------------------------------------------------------------------------------------------------|
[-------------------------------------------------------------------------------------------------------------------------|
[-15151515151515/10101010101010/121212121212/55/7777-----------15151515151515/10101010101010/121212121212/55/7777---------|
[-15151515151515/10101010101010/121212121212/55/7777------7-5--15151515151515/10101010101010/121212121212/55/7777-----7-5-|
[-15151515151515/10101010101010/121212121212/55/7777--7-9------15151515151515/10101010101010/121212121212/55/7777-7-9-----|

                                                               guitar 2
                                                               [-----------------------------------------------------------|
                                                               [-15------13------15------13------15------13----------------|
                                                               [------------------------------------------------12-----14--|
                                                               [-----------------------------------------------------------|
                                                               [-----------------------------------------------------------|
                                                               [-----------------------------------------------------------|


guitar 1
[----------------------------------------------------]
[----------------------------------------------------]
[----------------------------------------------------]
[-15151515151515/10101010101010/121212121212/55/7777-]
[-15151515151515/10101010101010/121212121212/55/7777-]
[-15151515151515/10101010101010/121212121212/55/7777-]

guitar 2
[------------------------------------------------------------------------------------------]
[-15------13------15------13------15------13-----------------------------------------------]
[------------------------------------------------12-----14---------------------------------]
[-----------------------------------------------------------109108987876765654543433232121-]
[------------------------------------------------------------------------------------------]
[------------------------------------------------------------------------------------------]

PLEASE RATE AND COMMENT. ENJOY!

            
            
Suggest correction
Creating personal tab
Creating personal tab
You can edit any tab online and save it as your Personal.

You can edit, replace or remove any tab part or add personal notes – all changes will be seen only by you.

Personal tabs can be accessed anytime from any device, even offline.
Learn more »
comments
print report bad tab
5 comments total. Showing first comments.
0 reply
Anarion614 81 Sep 01, 2006 02:55 PM

finally! a socio tab! one of my favorite songs

0 reply
micdaron 111 Sep 01, 2006 09:12 PM

Yes finally! Please rate.

0 reply
arsonite 171 Sep 05, 2006 10:09 AM

good job!

guest
You may want to rate the tab now too:
select rating
Wanna post a correction for this tab? Suggest correction