Oops, an error
Loading. Please wait.

Socio tab

version 2
version 2

Whole song

Interactive

4,366 views 3 this week
3 commentsread comments
1 2 3 4 5
x 4
add to favorites
×
Save as Personal and add changes to this tab that will be seen only by you. Learn more ›
×
You can save this tab as Personal to edit and correct it or add notes. All changes will be seen only by you. Learn more »
launch autoscroll
font size
0
reset
how to read this tab
guitar tuner
backing track
0:00
0:00
edit
Autoscroll
slow
fast
+/-
esc
set tempo
stop
Tabbed by: socio_blackbird
Email: titan_2827@hotmail.com

Tuning: Standard

   I kinda figured out a tab for standard tuning. I kno stone sour is a drop tune kinda
but im lazy so i trued to figure out a way to do it in standard. The strum patterns
here so ull have to get em right on ur own, sorry, its not hard though. This is my first 
so take it easy on me. enjoy. peace

    Verse
e|--------------------------------------------------------------------------|
B|--------------------------------------------------------------------------|
G|--------------------------------------------------------------------------|
D|--------------------------------------------------------------------------|
A|--------------------------------------------------------------------------|
E|------2-------------------------------------------------------------------|
       (^continuous tremlo picking through the song cept for chorus)

 Guitar 2, (halfway thru first verse.)
e|--------------------------------------------------------------------------|
B|--------------------------------------------------------------------------|
G|----66666666666666666666/77777777777777777777\66666666666666666\444444444-|
D|--------------------------------------------------------------------------|
A|--------------------------------------------------------------------------|
E|--------------------------------------------------------------------------|
        ^ not the exact number of picks...just given u a general idea.
 Chorus
e|--------------------------------------------------------------------------|
B|--------------------------------------------------------------------------|
G|-------------7-7-7-7------------------------------------------------------|
D|-------------7-7-7-7--7-7-7-7--9-9-9-9--4-4-------------------------------|
A|--------2----5-5-5-5--7-7-7-7--9-9-9-9--4-4-------------------------------|
E|--2-4-5---------------5-5-5-5--7-7-7-7--2-2-------------------------------|

        Repeat chorus^

   Thats basically it cept for the solo and outro. Have fun!

| /  slide up
| \  slide down
| h  hammer-on
| p  pull-off
| ~  vibrato
| +  harmonic
| x  Mute note
===============================================================================

            
            
Suggest correction
Creating personal tab
Creating personal tab
You can edit any tab online and save it as your Personal.

You can edit, replace or remove any tab part or add personal notes – all changes will be seen only by you.

Personal tabs can be accessed anytime from any device, even offline.
Learn more »
comments
print report bad tab
3 comments total.
0 reply
Sound Mind 536 Apr 27, 2007 12:25 PM

nice work

0 reply
brokenunder 364 Jun 23, 2007 03:19 AM

dude this is good but for the leads...

during the last chorus its

e|----------------------------
B| 12--10--12--10--12--10-----
G|------------------------9-11
D|----------------------------
A|----------------------------
E|----------------------------

and for the solo its the solo in the higher rated version but each note is 3frets down

0 reply
assasin124 10 Jun 23, 2009 08:53 AM

great song, good tab

guest
You may want to rate the tab now too:
select rating
Wanna post a correction for this tab? Suggest correction