Oops, an error
Loading. Please wait.

Suffer Bass Tab

version 1
version 1

Whole song

Interactive

1,397 views 3 this week
no commentswrite comment
1 2 3 4 5
please rate
add to favorites
launch autoscroll
font size
0
reset
guitar tuner
Autoscroll
slow
fast
+/-
esc
set tempo
stop
Help us to improve Ultimate-Guitar.com Take our survey!
×
Author
Suffer - Stone Sour

Intro
E |------------|
B |------------|
F#|------------|
B |-5--1--0--6-| x9


Verse Bit
E |----------------|
B |----------------|
F#|----7-----------| 
B |-3-----3-x-5p3--| x8

Intro x4

Verse Bit x8

Intro x8

Chorus 
E |-------------|
B |-------------|
F#|-------------|
B |-0--3--8--0--| x2

After-Chorus
E |--------------------|
B |--------------------|
F#|--------------------|
B |-0-0-0-0-8--0-0-0-1-| x4

Verse Bit x8

Intro x8

Chorus x2

After Chorus x8

Chorus x2

Intro x8

Chorus x2

After-Chorus
Suggest correction
Give kudos to tab author, rate the tab!
1 2 3 4 5
comments
print report bad tab
guest
You may want to rate the tab now too:
select rating
Wanna post a correction for this tab? Suggest correction