Oops, an error
Loading. Please wait.

Taciturn Tab

version 2
version 2

Acoustic

Whole song

Interactive

2,955 views 1 this week
2 commentsread comments
1 2 3 4 5
please rate
add to favorites
launch autoscroll
font size
0
reset
how to read this tab
guitar tuner
Autoscroll
slow
fast
+/-
esc
set tempo
stop
Help us to improve Ultimate-Guitar.com Take our survey!
×
Author
                                    Stone Sour-Taciturn
when you listen to the BBC 1 recording on youtube you can hear It's in drop B. Im not
sure if he plays the song in this tuning every time. it sounds good in drop C and half
step down tuning also. this tab is 100% correct and I DID NOT COPY ANYBODY'S TAB. if this tab
looks like yours it's because those are the notes for the song.

Intro:                                                                            
                                                                       
e|----0----------0-----------------------------------------------------------|
B|-----1----12x--1-----------------------------------------------------------|
G|------2--------2-----------------------------------------------------------|
D|---------------2-----------------------------------------------------------|
A|---------------------------------------------------------------------------|
E|---------------------------------------------------------------------------|
      4 second pause then..
Across the sea to you...

e|---------------------------------------------------------------------------|
B|---1---------3----------3--------------------------------------------------|
G|----2--4x-----0--4x------2--4x---------------------------------------------|
D|-----2---------0----------0------------------------------------------------|
A|---------------------------------------------------------------------------|
E|---------------------------------------------------------------------------|
      
0:30

e|----------------------------------------0----------------------------------|
B|--1--------3---------3--------1---------1----------------------------------|
G|---2---4x---0---4x----2--4x----2---2x---2----------------------------------|
D|----2--------0---------0--------2-------2----------------------------------|
A|---------------------------------------------------------------------------|
E|---------------------------------------------------------------------------|
    2 second pause then...
In the middle...cold-black-sky

e|-----------------0-0-0-----------------------------------------------------|
B|--3--------------1-1-1-----------------------------------------------------|
G|---0----4x-------2-2-2-----------------------------------------------------|
D|----0------------2-2-2-----------------------------------------------------|
A|---------------------------------------------------------------------------|
E|---------------------------------------------------------------------------|

The sun can only burn for you...

e|---------------------------------------------------------------------------|
B|---3---------1-------------------------------------------------------------|
G|----0---4x----2---4x-------------------------------------------------------|
D|-----0---------2-----------------------------------------------------------|
A|---------------------------------------------------------------------------|
E|---------------------------------------------------------------------------|

In a moment... lose-my-mind

e|-----------------0-0-0-----------------------------------------------------|
B|--3--------------1-1-1-----------------------------------------------------|
G|---0----4x-------2-2-2-----------------------------------------------------|
D|----0------------2-2-2-----------------------------------------------------|
A|---------------------------------------------------------------------------|
E|---------------------------------------------------------------------------|

1:10 these hours don't mean anything.....

e|------------------------|--------------------------------------------------------|
B|--3---------3-------3--|---1-------3--------3------------1-----------------------|
G|---0---4x----2--2x-----|----2--4x---0--4x----2----4x------0-----4x---------------|
D|----0---------0--------|-----2-------0--------0-------------2--------------------|
A|-----------------------|---------------------------------------------------------|
E|-----------------------|---------------------------------------------------------|             
             4 second pause here^ then...
                                              
Give me a sign

e|---------------------------------------------------------------------------|
B|-1--------3--------3-------------1--------1--------------------------------|
G|--2--4x----0---4x---2---4x-------0--4x----0--------------------------------|
D|---2--------0--------0------------2-------2--------------------------------|
A|---------------------------------------------------------------------------|
E|---------------------------------------------------------------------------|

    5 second pause then...
Across the world for you

e|-----------------------------------------------------------------------------|
B|-1-----------3---------3--------1--------------------------------------------|
G|--2---4x------0----4x---2--4x----2----4x-------------------------------------|
D|---2-----------0---------0--------2------------------------------------------|
A|-----------------------------------------------------------------------------|
E|-----------------------------------------------------------------------------|

I'd cross the world for you

e|---------------------------------------------------------------------------|
B|----------3---------3-------1----------------------------------------------|
G|-----------0---4x----2--4x---2-4x------------------------------------------|
D|------------0---------0-------2--------------------------------------------|
A|---------------------------------------------------------------------------|
E|---------------------------------------------------------------------------|

    2 second pause then...
In the middle...clear-blue-sky

e|-----------------0-0-0-----------------------------------------------------|
B|--3--------------1-1-1-----------------------------------------------------|
G|---0----4x-------2-2-2-----------------------------------------------------|
D|----0------------2-2-2-----------------------------------------------------|
A|---------------------------------------------------------------------------|
E|---------------------------------------------------------------------------|

The sun can only burn...

e|---------------------------------------------------------------------------|
B|---3---------1-------------------------------------------------------------|
G|----0---4x----2---4x-------------------------------------------------------|
D|-----0---------2-----------------------------------------------------------|
A|---------------------------------------------------------------------------|
E|---------------------------------------------------------------------------|

In a moment... lose-my-mind

e|-----------------0-0-0-----------------------------------------------------|
B|--3--------------1-1-1-----------------------------------------------------|
G|---0----4x-------2-2-2-----------------------------------------------------|
D|----0------------2-2-2-----------------------------------------------------|
A|---------------------------------------------------------------------------|
E|---------------------------------------------------------------------------|

These hours don't mean anything...

e|-------------------------------------------------------------------------------|
B|--3--------3--------3----------------------------------------------------------|
G|---0---4x---2---2x--2--don´t let ring------------------------------------------|
D|----0--------0------0----------------------------------------------------------|
A|-------------------------------------------------------------------------------|
E|-------------------------------------------------------------------------------|

    4 second pause then...
Then strum the chords:

e|---0-----------0---------0-------0----------------------------------|
B|---1-----------3---------3-------1----------------------------------|
G|---2-----------0---------2-------0----------------------------------| 2x
D|---2----------0---------0-------2-----------------------------------|
A|--------------------------------------------------------------------|
E|--------------------------------------------------------------------|



                                        | third time only
e|---0----------0---------0-------0-----|----0----------0-----------------------|
B|---3----------3---------1-------1-----|----3----------3-----------------------|
G|---0----------2---------2-------2-(3x)|----0----------2-----------------------|
D|---0----------0---------2-------2-----|----0----------0-----------------------|
A|--------------------------------------|---------------------------------------|
E|--------------------------------------|---------------------------------------|

    3 second pause then...

e|---0----------0---------0-------0--------------------------------------------|
B|---1----------3---------3-------1--------------------------------------------|
G|---2----------0---------2-------0--------------------------------------------|2x
D|---2----------0---------0-------2--------------------------------------------|
A|-----------------------------------------------------------------------------|
E|-----------------------------------------------------------------------------|


e|---0----------0---------0-------0-----|
B|---3----------3---------1-------1-----|
G|---0----------2---------2-------2-----|
D|---0----------0---------2-------2-----|
A|--------------------------------------|
E|--------------------------------------|


End on

e|----0----------0~----------------------------------------------------------|
B|-----1----6x---1~----------------------------------------------------------|
G|------2--------2~----------------------------------------------------------|
D|---------------2~----------------------------------------------------------|
A|---------------0~----------------------------------------------------------|
E|---------------------------------------------------------------------------|
Suggest correction
What's this?
You can suggest a correction to this tab. Community and Mods will review your correction and vote to approve or reject it.
comments
We did not receive enough feedback on this tab! Please rate:
print report bad tab
1 2 3 4 5
2 comments total.
0 reply
Jarda87 257 wrote on December 22 2012, 12:41 pm

I´m sorry but what the hell is this?? I expect at least some acknowledgement or thanks if you just copy my whole tab and only change tuning and some minor details. Are you kidding me?
And by the way, it´s NOT in eb, see my tab.

0 reply
flyinglizard2 181 wrote on January 1 2013, 10:13 am

i didnt copy anybodys tab. these are the notes in the song. if it looks the same its because its the same note! i played your tab but noticed there were a few wrong timings in it so i made my own tab. that is all

guest
You may want to rate the tab now too:
select rating
Please do not post tabs as comments. Select "correction" instead!