Oops, an error
Loading. Please wait.

Take A Number Bass Tab

version 2
version 2

Whole song

Interactive

677 views 3 this week
no commentswrite comment
1 2 3 4 5
3 more votes to show rating
add to favorites
launch autoscroll
font size
0
reset
guitar tuner
Autoscroll
slow
fast
+/-
esc
set tempo
stop
Help us to improve Ultimate-Guitar.com Take our survey!
×
Author
Song: Take A Number
Artist: Stone Sour
Album: Stone Sour (Selftitled)
Tabbed By: Troy Ellis

This song is played on a 4 String bass tunned to "Drop B".
This is about 99% correct if not 100%. This sound exactly like the track when i play 
to it.

Check my YouTube Page for covers and lessons: http://www.youtube.com/user/5lipknot1

Tunning: BF#BE

At 0:02 play an open Low B

Riff1 / Intro:
(the guitar will do a little intro and then the bass comes in at 0:05)

E |------------------------------|
B |------------------------------|
F#|-7/9/7-------5-9/7/9------5~~~| x3
B |-------5-0-0---------5-0------|

Riff2 / Verse section 1:

E |--------------|
B |-----------5~-|
F#|-0-000-5-7----| x4 (after you have played this play section 2)
B |--------------|

Riff2 / Verse section 2:

E |---------|
B |---------|
F#|-00--7-9-| x1 (once you have done this go back to section 1)
B |---------|

Riff3 / Chorus section 1:

E |-----------|
B |-----------|
F#|-7-777775~-| x3 (once you have played this 3 times go to section 2.)
B |-----------|

Riff3 / Chorus section 2:

E |-----------|
B |-----------|
F#|-----------| x1 (once you have played this once go to section 3.)
B |-7-777775~-|

Riff3 / Chorus section 3:

E |-----------------|
B |-----------------|
F#|-----------------| x3 (once you have played this 3 times go back to section 4.)
B |-10-10101010109~-|

Riff3 / Chorus section 4:

E |-----------|
B |-----------|
F#|-----------| x1
B |-7-777775~-|

Riff4 / Verse section 1:

E |--------------|
B |-----------5~-|
F#|-0-000-5-7----| x4 (after you have played this play section 2)
B |--------------|

Riff2 / Verse section 2:

E |---------|
B |---------|
F#|-00--7-9-| x1 (once you have done this go back to section 1)
B |---------|

Riff5 / Chorus section 1:

E |-----------|
B |-----------|
F#|-7-777775~-| x3 (once you have played this 3 times go to section 2.)
B |-----------|

Riff5 / Chorus section 2:

E |-----------|
B |-----------|
F#|-----------| x1 (once you have played this once go to section 3.)
B |-7-777775~-|

Riff5 / Chrous section 3:

E |-----------------|
B |-----------------|
F#|-----------------| x3 (once you have played this 3 times go back to section 4.)
B |-10-10101010109~-|

Riff5 / Chorus section 4:

E |-----------|
B |-----------|
F#|-----------| x1
B |-7-777775~-|

Riff6 / Mid Section(I dont know what to call it so im just going to call it the mid section)

E |------------------------------|
B |------------------------------|
F#|-7/9/7-------5-9/7/9------5~~~| x4
B |-------5-0-0---------5-0------|

Riff7 / Chorus section 1:

E |-----------|
B |-----------|
F#|-7-777775~-| x3 (once you have played this 3 times go to section 2.)
B |-----------|

Riff7 / Chorus section 2:

E |-----------|
B |-----------|
F#|-----------| x1 (once you have played this once go to section 3.)
B |-7-777775~-|

Riff7 / Chorus section 3:

E |-----------------|
B |-----------------|
F#|-----------------| x3 (once you have played this 3 times go back to section 4.)
B |-10-10101010109~-|

Riff7 / Chorus section 4:

E |-----------|
B |-----------|
F#|-----------| x1
B |-7-777775~-|

Riff8 / Outro:

E |------------------------------|
B |------------------------------|
F#|-7/9/7-------5-9/7/9------5~~~| (Keep playing until song end. On the last  
B |-------5-0-0---------5-0------|time hold the 5until the song fades out.)

Hope you enjoy this. I will be doing more tabs WOOT! xD.
Please comment and rate.
Check out my YouTube page http://www.youtube.com/user/5lipknot1
Suggest correction
Give kudos to tab author, rate the tab!
1 2 3 4 5
comments
print report bad tab
guest
You may want to rate the tab now too:
select rating
Wanna post a correction for this tab? Suggest correction