Oops, an error
Loading. Please wait.

Take A Number Bass Tab

version 3
version 3

Whole song

Interactive

276 views 1 this week
no commentswrite comment
1 2 3 4 5
3 more votes to show rating
add to favorites
launch autoscroll
font size
0
reset
guitar tuner
Autoscroll
slow
fast
+/-
esc
set tempo
stop
Help us to improve Ultimate-Guitar.com Take our survey!
×
Intro (0:03 - 0:21)
G|-----------------|-----------------|-----------------|-----------------|
D|-----------------|-----------------|-----------------|-----------------|
A|-----------------|-----------------|-----------------|-----------------|
E|-5---------------|-2-2-2-2-2-2-2-5-|-2-2-2-2-2-2-2-5-|-2-2-2-2-2-2-2-5-|

Verse - Play this 3 times (0:21 - 0:54)
G|-----------------|    G|-----------------|
D|-----------2-----|    D|-2222-4----------|
A|-4--44-2-4-------| x4 A|-----------------|
E|-----------------|    E|-----------------|

Chorus Pt 1 (0:55 - 1:05)
G|-----------------|    G|-----------------|
D|-----------------|    D|-----------------|
A|-4-4-4-4-4-4-2---| x3 A|-----------------|
E|-----------------|    E|-0h2-2-2-2-2-4---|

Chorus Pt 2 (1:05 - 1:15)
G|-----------------|-----------------|-----------------|-----------------|
D|-----------------|-4-4-4-4-4-4-2---|-----------------|-----------------|
A|-4-4-4-4-4-4-2---|-----------------|-4-4-4-4-4-4-2---|-----------------|
E|-----------------|-----------------|-----------------|-0h2-2-2-2-2-4---|

Verse - Play this 3 times (1:15 - 1:48)
G|-----------------|    G|-----------------|
D|-----------2-----|    D|-2222-4----------|
A|-4--44-2-4-------| x4 A|-----------------|
E|-----------------|    E|-----------------|

Chorus Pt 1 (1:48 - 1:58)
G|-----------------|    G|-----------------|
D|-----------------|    D|-----------------|
A|-4-4-4-4-4-4-2---| x3 A|-----------------|
E|-----------------|    E|-0h2-2-2-2-2-4---|

Chorus Pt 2 (1:59 - 2:09)
G|-----------------|-----------------|-----------------|-----------------|
D|-----------------|-4-4-4-4-4-4-2---|-----------------|-----------------|
A|-4-4-4-4-4-4-2---|-----------------|-4-4-4-4-4-4-2---|-----------------|
E|-----------------|-----------------|-----------------|-0h2-2-2-2-2-4---|

Bridge (2:09 - 2:30)
G|-----------------|-----------------|-----------------|-----------------|
D|-----------------|-----------------|-----------------|-----------------|
A|-----------------|-----------------|-----------------|-----------------|
E|-2-2-2-2-2-2-2-5-|-2-2-2-2-2-2-2-5-|-2-2-2-2-2-2-2-5-|-2-2-2-2-2-2-2-5-|

Chorus Pt 1 (2:30 - 2:40)
G|-----------------|    G|-----------------|
D|-----------------|    D|-----------------|
A|-4-4-4-4-4-4-2---| x3 A|-----------------|
E|-----------------|    E|-0h2-2-2-2-2-4---|

Chorus Pt 2 (2:41 - 2:51)
G|-----------------|-----------------|-----------------|-----------------|
D|-----------------|-4-4-4-4-4-4-2---|-----------------|-----------------|
A|-4-4-4-4-4-4-2---|-----------------|-4-4-4-4-4-4-2---|-----------------|
E|-----------------|-----------------|-----------------|-0h2-2-2-2-2-4---|

Solo (2:51 - 3:12)
G|-----------------|-----------------|-----------------|-----------------|
D|-----------------|-----------------|-----------------|-----------------|
A|-----------------|-----------------|-----------------|-----------------|
E|-2-2-2-2-2-2-2-5-|-2-2-2-2-2-2-2-5-|-2-2-2-2-2-2-2-5-|-2-2-2-2-2-2-2-5-|

Outro - Hold the last 5 until the end of the song (3:12 - 3:43)
G|-----------------|-----------------|-----------------|-----------------|
D|-----------------|-----------------|-----------------|-----------------|
A|-----------------|-----------------|-----------------|-----------------|
E|-2-2-2-2-2-2-2-5-|-2-2-2-2-2-2-2-5-|-2-2-2-2-2-2-2-5-|-2-2-2-2-2-2-2-5-|


| /  slide up
| \  slide down
| h  hammer-on
| p  pull-off
| ~  vibrato
| +  harmonic
| x  Mute note
Suggest correction
Give kudos to tab author, rate the tab!
1 2 3 4 5
comments
print report bad tab
guest
You may want to rate the tab now too:
select rating
Wanna post a correction for this tab? Suggest correction