Oops, an error
Loading. Please wait.

The Day I Let Go Tab

3,019 views 1 this week
no commentswrite comment
1 2 3 4 5
please rate
add to favorites
launch autoscroll
font size
0
reset
how to read this tab
guitar tuner
Autoscroll
slow
fast
+/-
esc
set tempo
stop
Help us to improve Ultimate-Guitar.com Take our survey!
×
Contributor
Difficulty
intermediate
Stone Sour
"The Day I Let Go" (5:05) (Bonus Track)
Come What(Ever) May Deluxe Edition
Release Date: June 2007
Tuning: C# F# B E G# C#
Corey Taylor - Gtr 1. (Acoustic)
Josh Rand - Gtr 2. (Electric w. Heavy Distortion)
Shawn Economaki - Bass
Jim Root - Drums. (Jim recorded the drums for this song. Roy Mayorga (Soulfly) wasn't in 
band permanently yet, so Jim filled in on drums. fun little fact.
All tabbed by ear. About 50% completed. I'll finish the chorus and bridge soon.
                                                                "The Day I Let Go"


Intro Drums Only (0:01-0:07)

Pre-Verse (0:08-0:40) 4x
Gtr 1(Acoustic)
C#|-------------------------------|---------------------------|-------------------------------|
G#|-------------------------------|---------------------------|-------------------------------|
E |-------------------------------|---------------------------|-------------------------------|
B |-------------------------------|---------------------------|-------------------------------|
F#|---9---9h10---10-9---10-9----9-|----9---9h10---10-9---9-9-9|---9---9h10---10-9---10-9----9-|
C#|-0---0------0------0------12---|-0----0------0------0------|-0---0------0------0------12---|

(0:24) End of preverse riff
C#|-------------------------------||
G#|-------------------------------||
E |-------------------------------||
B |-------------------------------||
F#|---9---9h10----14\-12-12-12-12-||
C#|-0---0------0------------------||

Pre-Verse (0:25)
Gtr 2 (Elec. Heavy Distortion)
C#|-------------------------------||
G#|-------------------------------||
E |-------------------------------||
B |-2~~~~~~~~~~~~~----------------||
F#|-2~~~~~~~~~~~~~--Let Ring Out--||
C#|-0~~~~~~~~~~~~~----------------||

Verse A 4x (0:41-1:12)
Gtr 1(Acoustic)
C#|-------------------------------|---------------------------|-------------------------------|
G#|-------------------------------|---------------------------|-------------------------------|
E |-------------------------------|---------------------------|-------------------------------|
B |-------------------------------|---------------------------|-------------------------------|
F#|---9---9h10---10-9---10-9----9-|----9---9h10---10-9---9-9-9|---9---9h10---10-9---10-9----9-|
C#|-0---0------0------0------12---|-0----0------0------0------|-0---0------0------0------12---|
   "What a waste of life this is...every altercation i permit....is like a quiet sigh 
a man

Verse A)
Gtr 2 (Elec. Heavy Distortion)
C#|-------------------------------||
G#|-------------------------------||
E |-------------------------------||
B |-2~~~~~~~~~~~~~----------------||
F#|-2~~~~~~~~~~~~~--Let Ring Out--||
C#|-0~~~~~~~~~~~~~----------------||

Cont.End of Verse A)
Gtr 1 (Acoustic)
C#|-------------------------------||
G#|-------------------------------||
E |-------------------------------||
B |-------------------------------||
F#|---9---9h10----14\-12-12-12-12-||
C#|-0---0------0------------------||
  resigned to a place that was never his...

Chorus (1:13-1:21)












"The Day I Let Go" Lyrics by Stone Sour
Verse A)
What a waste of life this is,
Every altercation I permit
Is like a quiet sigh
From a man resigned to a place that was never his
And the hours are long, even in a world where I belong
Every second stays, every minute counts against my sentence

Chorus A)
I fall....I had to let you go

Verse B)
What i tried to accomplish died
Every offer of faith I had to fight
And a dream unfolds
The moon is cold because the sun left early
And the days go by, even when my conscience just won't try
Every week decays, every month is rotten
I AM FORGOTTEN

Chorus B)
I fall...I had to let you go
I fall...My mind is all i know
I fall...the table turns to dust
I fall...today, I let go of my trust

Verse C)
What a waste of time I am,
every ounce of life is just dead flesh
I can't forget, but then again you can't let me remember
When I try to speak, every word I say comes out so bleak
I don't want this, I don't want you
But I DON'T WANT ANYONE
I don't want anyone

Chorus C)
I fall...I had to let you go
I fall...My mind is all i know
I fall...the table turns to dust
I fall...today, I let go of my trust

Lyrics by Stone Sour
comments
We did not receive enough feedback on this tab! Please rate:
print report bad tab
1 2 3 4 5
I want to post or [tab]
guest
You may want to rate the tab now too:
select rating
Please do not post tabs as comments. Select "correction" instead!