Oops, an error
Loading. Please wait.
We have Chord Pro version of Through Glass.
It's the closest thing you can get to the original song and it has interactive parts. Check out the tab »
×
116,671 views 78 this week
24 commentsread comments
1 2 3 4 5
x 26
add to favorites
launch autoscroll
font size
0
reset
how to read this tab
guitar tuner
Autoscroll
slow
fast
+/-
esc
set tempo
stop
Author
Through the Glass - Stone Sour

From the album: Come What [Ever] May


Tuning: D#,G#,C#,F#,A#,D#

If you have any questions just email me at gmiller09@yahoo.com

Thanks


Intro:

e|--------------------------------------------0---|
B|---0---0------------------------------0--0--0---|
G|---------------0-----------0----------------0---|
D|--5---7------9---9-------9---9------5---7---2---|
A|-3---5-----7-------7---7-------7---3---5----2---|
E|---------0-----------0----------------------0---|

(I'm looking..)

e|-3--2-3-2--0--2-|
B|-3--3-3-3--0--3-|
G|-0--2-2-2--0--2-|
D|-2--0-0-0--2--0-|
A|-3---------2----|
E|-----------0----|


Verse and Chorus:

e|-00000000--00000000-0000000000000000-|
B|-00000000--00000000-0000000000000000-|
G|-00000000--00000000-0000000000000000-|
D|-55555555--77777777-9999999999997777-|
A|-33333333--55555555-7777777777775555-|
E|--------------------000000000000-----|

1st Chorus Lead fill:

e|-------------------------------------------|
B|-12--10-----------12-10-8-7---12--10-------|
G|---12--11--7--99--12-11-9-7-----12--11--9~-|
D|-------------------------------------------|
A|-------------------------------------------|
E|-------------------------------------------|

From 2nd Chorus on it plays this chord progression:

e|-00000000-22222222-0000000000002222-|
B|-11111111-33333333-0000000000003333-|
G|-00000000-22222222-0000000000002222-|
D|-22222222-00000000-2222222222220000-|
A|-33333333----------222222222222-----|
E|-------------------000000000000-----|


I have yet to figure out all of the lead part. I will be back with the lead.

-Gage
Suggest correction
comments
print report bad tab
24 comments total. Showing first comments.
0 reply
guitarsuperman2 31 Jun 29, 2006 07:55 PM

well, it's pretty good, just finish the lead and u got a 5 star

0 reply
talculwun 70 Jul 09, 2006 01:28 PM

very easy song. tune down half a step and you can play the entire song with three chords. C, D, and Em

0 reply
jaames 1,351 Jul 13, 2006 07:36 PM

Your intro's right on, but right after it they play this.
e|-3--2-3-2--0--2-|
B|-3--3-3-3--0--3-|
G|-0--2-2-2--0--2-|
D|-2--0-0-0--2--0-|
A|-3---------2----|
E|-----------0----|
And the rest of the tab sounds not too bad atol, 5.

guest
You may want to rate the tab now too:
select rating
Wanna post a correction for this tab? Suggest correction