Oops, an error
Loading. Please wait.

Through Glass Bass Tab

version 2
version 2
10,361 views 12 this week
no commentswrite comment
1 2 3 4 5
excellent!
x 6
add to favorites
launch autoscroll
font size
0
reset
guitar tuner
Autoscroll
slow
fast
+/-
esc
set tempo
stop
Help us to improve Ultimate-Guitar.com Take our survey!
×
Author
Difficulty
novice
Song:Through Glass
Band:Stone Sour
Tuning:Eb,Ab,Db,Gb
Bassist:Shawn Economaki
Tabber:v.s.bassist

Bass Doesn't come in til the third chorus.

3rd Chorus
|----------------------------------------------------|
|----------------------------------------------------|
|-3-3-333-33-----------------------------------5-5-0-|
|-----------0-5-5-55-5-5-5-0-0-000-000-0-0-000-------|

|-------------------------------------------------|
|-------------------------------------------------|
|-3-3-333-3-00-5-55-5-555-5/7-7-777-7-7-99-10-12/-|
|-------------------------------------------------|

|------------------------------------------------------|
|------------------------------------------------------|
|-3-3-333-33-------------------------------------------|
|-----------0-5-5-55-5-5-5-0-0-000-000-0-0-2-2-3-3-5-5-|

|-------------------------------------------------|
|-------------------------------------------------|
|-3-3-333-3-00-5-55-5-555-5/7-7-777-7-7-99-10-12/-|
|-------------------------------------------------|

Bridge
|---------------------------------------------------------------------------|
|---------------------------------------------------------------------------|
|-3-3------5-5------------------------3-3------5-5-------7-7---7-9-1010-12/-|
|-------------------0-0------0-0--------------------------------------------|

|------------------------------------------------------|
|------------------------------------------------------|
|-3-3-333-33-------------------------------------------|
|-----------0-5-5-55-5-5-5-0-0-000-000-0-0-2-2-3-3-5-5-|

|-------------------------------------------------|
|-------------------------------------------------|
|-3-3-333-3-00-5-55-5-555-5/7-7-777-7-7-99-10-12/-|
|-------------------------------------------------|

|------|                  |--------------|
|------|                  |--------------|
|-REST-| 15 measures then |-7-9-1010-12/-|
|------|                  |--------------|

|------------------------------------------------------|
|------------------------------------------------------|---|
|-3-3-333-33-------------------------------------------|   |
|-----------0-5-5-55-5-5-5-0-0-000-000-0-0-2-2-3-3-5-5-|   |
                                                           |2x
|-------------------------------------------------|        |
|-------------------------------------------------|        |
|-3-3-333-3-00-5-55-5-555-5/7-7-777-7-7-99-10-12/-|--------|
|-------------------------------------------------|

Outro
|----------------------------------------------------------|
|----------------------------------------------------------|
|-3-3-3-33----------------------------33333333-555-------7-|
|----------55555555-00000000-00223355-------------3-5-5----|
Suggest correction
comments
print report bad tab
guest
You may want to rate the tab now too:
select rating
Please do not post tabs as comments. Select "correction" instead!