Oops, an error
Loading. Please wait.

Through Glass Tab

version 2
48,565 views 15 this week
1 commentread comment
1 2 3 4 5
worth learning
x 4
add to favorites
launch autoscroll
font size
0
reset
how to read this tab
guitar tuner
Tab Pro tools
  • play this tab
  • loop segment
  • change instrument
  • show fretboard
  • metronome
×
Best way to learn
"Through Glass"
Autoscroll
slow
fast
+/-
esc
set tempo
stop
Contributor
Difficulty
novice
-------------------------------------------------------------------------------
                             Through The Glass - Stone Sour
-------------------------------------------------------------------------------
Tabbed by:Sam C
Email:bobyjones2004@hotmail.com

Tuning:D# G# C# F# A# D# ( 1/2 step down from eBGDAE)

e|-------------------------------------------------|
B|-------------------------------------------------|
G|-----4-------4----------0------------0-----------|x2 ( with the 0-2-2-0 bit
D|---5-------7---------2---2--------2---2----------|on the second time it's
A|-3-------5---------2-------2----2-------2--------|one chors just E A D are
E|-----------------0------------0------------------|struct)

verse 1
e|----------------------------------------------------------------------------------|
B|-0--0-0-0-0--0--0-0--0--0-0-0-0--0--0-0--0--0-0-0-0--0--0-0--0--0-0-0-0--0--0-0//0|
G|-5--5-5-5-5--5--5-5--7--7-7-7-7--7--7-7--9--9-9-9-9--9--9-9--9--9-9-9-9--9--9-9//5|
D|-5--5-5-5-5--5--5-5--7--7-7-7-7--7--7-7--9--9-9-9-9--9--9-9--9--9-9-9-9--9--9-9//5|(x4)
A|-3--3-3-3-3--3--3-3--5--5-5-5-5--5--5-5--7--7-7-7-7--7--7-7--7--7-7-7-7--7--7-7//3|
E|----------------------------------------------------------------------------------|

chorus 1
e|------------------------------------------------------------------------------|
B|-0--0-0-0-0--0--0-0--0--0-0-0-0--0--0-0--0--0-0-0-0--0--0-0-0--0--0--0--0--0--|
G|-5--5-5-5-5--5--5-5--7--7-7-7-7--7--7-7--9--9-9-9-9--9--9-9-11-11-12-12-14-16-|
D|-5--5-5-5-5--5--5-5--7--7-7-7-7--7--7-7--9--9-9-9-9--9--9-9-11-11-12-12-14-16-|(x2)
A|-3--3-3-3-3--3--3-3--5--5-5-5-5--5--5-5--7--7-7-7-7--7--7-7-9--9--10-10-12-14-|
E|------------------------------------------------------------------------------|


                                                               Pm............
verse 2
e|----------------------------------------------------------------------------------|
B|-0--0-0-0-0--0--0-0--0--0-0-0-0--0--0-0--0--0-0-0-0--0--0-0--0--0-0-0-0--0--0-0//0|
G|-5--5-5-5-5--5--5-5--7--7-7-7-7--7--7-7--9--9-9-9-9--9--9-9--9--9-9-9-9--9--9-9//5|
D|-5--5-5-5-5--5--5-5--7--7-7-7-7--7--7-7--9--9-9-9-9--9--9-9--9--9-9-9-9--9--9-9//5|(x4)
A|-3--3-3-3-3--3--3-3--5--5-5-5-5--5--5-5--7--7-7-7-7--7--7-7--7--7-7-7-7--7--7-7//3|
E|----------------------------------------------------------------------------------|

chorus 2
e|------------------------------------------------------------------------------|
B|-0--0-0-0-0--0--0-0--0--0-0-0-0--0--0-0--0--0-0-0-0--0--0-0-0--0--0--0--0--0--|
G|-5--5-5-5-5--5--5-5--7--7-7-7-7--7--7-7--9--9-9-9-9--9--9-9-11-11-12-12-14-16-|
D|-5--5-5-5-5--5--5-5--7--7-7-7-7--7--7-7--9--9-9-9-9--9--9-9-11-11-12-12-14-16-|(x8)
A|-3--3-3-3-3--3--3-3--5--5-5-5-5--5--5-5--7--7-7-7-7--7--7-7-9--9--10-10-12-14-|
E|------------------------------------------------------------------------------|

e|-----------------------------------------|----------------------------------------|
B|--0----0----0--------------0-------------|----------------------------------------|
G|--5----7----9----------0----------0------|--5-----7-----9-----11--12--14-16-------|
D|--5----7----9-------2---2------2----2----|--5(x8)-7(x8)-9(x8)-11--12--14-16-------|
A|--3----5----7-----2------2---2--------2--|--3-----5-----7-----9---10--12-14-------|(x2)
E|----------------0----------0-------------|----------------------------------------|
                                            PM............................


chorus 3
e|------------------------------------------------------------------------------|
B|-0--0-0-0-0--0--0-0--0--0-0-0-0--0--0-0--0--0-0-0-0--0--0-0-0--0--0--0--0--0--|
G|-5--5-5-5-5--5--5-5--7--7-7-7-7--7--7-7--9--9-9-9-9--9--9-9-11-11-12-12-14-16-|
D|-5--5-5-5-5--5--5-5--7--7-7-7-7--7--7-7--9--9-9-9-9--9--9-9-11-11-12-12-14-16-|(x8)
A|-3--3-3-3-3--3--3-3--5--5-5-5-5--5--5-5--7--7-7-7-7--7--7-7-9--9--10-10-12-14-|
E|------------------------------------------------------------------------------|

outro
e|----------------------------------------------------------------------------------|
B|-0--0-0-0-0--0--0-0--0--0-0-0-0--0--0-0--0--0-0-0-0--0--0-0--0--0-0-0-0--0--0-0//0|
G|-5--5-5-5-5--5--5-5--7--7-7-7-7--7--7-7--9--9-9-9-9--9--9-9--9--9-9-9-9--9--9-9//5|
D|-5--5-5-5-5--5--5-5--7--7-7-7-7--7--7-7--9--9-9-9-9--9--9-9--9--9-9-9-9--9--9-9//5|(x2)
A|-3--3-3-3-3--3--3-3--5--5-5-5-5--5--5-5--7--7-7-7-7--7--7-7--7--7-7-7-7--7--7-7//3|
E|----------------------------------------------------------------------------------|

| /  slide up
| \  slide down
| h  hammer-on
| p  pull-off
| ~  vibrato
| +  harmonic
| x  Mute note
===============================================================================
comments
print report bad tab
1 comment total.
0 reply
brokenanthem wrote on May 14 2007, 11:36 pm

Good try....but horrible. I've got some of the intro down so far and it's in standard. I didn't try to play through this tab because it just looks so wrong. Maybe I'll be surprised when I'm not too lazy to tune down and see. For now though.... 1/5

I want to post or [tab]
guest
You may want to rate the tab now too:
select rating
Please do not post tabs as comments. Select "correction" instead!