Oops, an error
Loading. Please wait.

Through Glass Tab

version 4
version 4
60,624 views 30 this week
4 commentsread comments
1 2 3 4 5
x 17
add to favorites
launch autoscroll
font size
0
reset
how to read this tab
guitar tuner
×
Best way to learn
"Through Glass"
Autoscroll
slow
fast
+/-
esc
set tempo
stop
Author
Difficulty
(Gtr 1) (Eb Ab Db Gb Bb Eb) - 'Acoustic 1'
(Gtr 2) (Eb Ab Db Gb Bb Eb) - 'Electric 1'
(Gtr 3) (Eb Ab Db Gb Bb Eb) - 'Electric 2'

[Chorus]
Q=106
N.C.     Cmaj7         D6            Em
(4/4)
(Gtr 1)
  E H      E E H.        E E H.        E E E E +E  E Q
e|--------|-------------|-------------|------------------|
B|--------|-----0-------|-----0-------|------------------|
G|--------|-------------|-------------|-------0-(0)------|
D|--------|---5---------|---7---------|-----9-------9----|
A|--------|-3-----------|-5-----------|---7-----------7--|
E|--------|-------------|-------------|-0----------------|

                      Cmaj7         D6            E5
   E E E E +E  E Q    E E H.        E E H.        W          +W
e|------------------|-------------|-------------|----------|--------|
B|------------------|-----0-------|-----0-------|----------|--------|
G|-------0-(0)------|-------------|-------------|----------|--------|
D|-----9-------9----|---5---------|---7---------|----------|--------|
A|---7-----------7--|-3-----------|-5-----------|----------|--------|
E|-0----------------|-------------|-------------|-0--------|-(0)----|

   Cadd9              D    DsusD       E5/B                       D5/A
   Q.   E +E  E E E   Q  E E E E E E   Q  E E E E Q    Q  E E E E Q
e|-3----3-(3)-3-3---|-2----3---2---0-|-0----0---0-0--|-0----0-0-0----|
B|-3----3-(3)-3-3---|-3--3-3---3---0-|-0----0---0-0--|-0----0-0-0-3--|
G|-0----0-(0)-0-0-0-|-2--2-2-2-2---0-|-4--4-4---4-4--|-4--4-4-4---2--|
D|-2----------2-2-0-|-0------0---0---|-2--2-2-2---2--|-2--2-2-2---0--|
A|-3----------------|-0--------------|-2--2-2-2---2--|-2--2---2---0--|
E|------------------|----------------|---------------|---------------|

   Cadd9            D                  E5
   Q  E E E E E E   Q  E E +E  E E E   W          +W
e|-3----3---3-3---|-2--------------0-|-0--------|-(0)----|
B|-3--3-3-3-3-3-3-|-3--3-3-(3)-3-3-0-|-0--------|-(0)----|
G|-0--0-0-0-0-0-0-|-2--2-2-(2)-2-2-0-|-4--------|-(4)----|
D|-2------x---x-0-|-0--0-0-(0)-0-0---|-2--------|-(2)----|
A|-3------3---3-0-|------------------|-2--------|-(2)----|
E|----------------|------------------|-0--------|-(0)----|

[Verse]
   Cmaj7                 Dsus2add6
   Q  E. S S S E E S S   Q  E. S S S E E S S
e|----0--0-------0-0-0-|----0--0-------0-0-0-|
B|----0--0-------0-0-0-|----0--0-------0-0-0-|
G|----4--4-------4-4-4-|----x----------x-----|
D|-5-------5-5-5-------|-7--7----7-7-7-7-----|
A|-3-------3-3-3-------|-5--5----5-5-5-5-----|
E|---------------------|---------------------|

   E5                                  DsusCmaj7
   Q  E. S S S E S S S S   Q  E. S S S E E E
e|-0--0--0-0-0---0-0-0-0-|-0--0--0-0-0-0-0-0--|
B|-0--0--0-0-0---0-0-0-0-|-0--0--0-0-0-0-0-0--|
G|-9--9--9-9-9---9-9-9-9-|-9--9--9-9-9-x-x-x--|
D|-9-------------9-9-9-9-|-9-----------7-7-5--|
A|-7-----------7-7-7-7-7-|-7-----------5-5-3--|
E|-0---------------------|--------------------|

   Cmaj7                    Dsus2add6
     Q   E. S S S E E S S      Q    E. S S S E E S S
e|-------0--0-------0-0-0-|---------0--0-------0-0-0-|
B|-------0--0-------0-0-0-|---------0--0-------0-0-0-|
G|-------4--4-------4-4-4-|---------x----------x-----|
D|---5--------5-5-5-------|----7----7----7-7-7-7-----|
A|---3--------3-3-3-------|----5----5----5-5-5-5-----|
E|------------------------|--------------------------|

(Gtr 2)
     ~~~~~~~~~~~~~~~~~~~~~~~~~~~~~~~~~~~~~~~~~~~~~~~~~
     W                        +W
e|-<12>-------------------|-(<12>)-------------------|
B|------------------------|--------------------------|
G|------------------------|--------------------------|
D|------------------------|--------------------------|
A|------------------------|--------------------------|
E|------------------------|--------------------------|

   E5                                        DsusCmaj7
    Q   E. S S S E S S S S     Q    E. S S S E E E
e|--0---0--0-0-0---0-0-0-0-|---0----0--0-0-0-0-0-0--|
B|--0---0--0-0-0---0-0-0-0-|---0----0--0-0-0-0-0-0--|
G|--9---9--9-9-9---9-9-9-9-|---9----9--9-9-9-x-x-x--|
D|--9--------------9-9-9-9-|---9-------------7-7-5--|
A|--7------------7-7-7-7-7-|---7-------------5-5-3--|
E|--0----------------------|------------------------|

  ~~~~~~~~~~~~~~~~~~~~~~~~~~~~~~~~~
    W                         +W
e|-<7>---------------------|-(<7>)------------------|
B|-------------------------|------------------------|
G|-------------------------|------------------------|
D|-------------------------|------------------------|
A|-------------------------|------------------------|
E|-------------------------|------------------------|

   Cmaj7                    Dsus2add6
     Q   E. S S S E E S S      Q    E. S S S E E S S
e|-------0--0-------0-0-0-|---------0--0-------0-0-0-|
B|-------0--0-------0-0-0-|---------0--0-------0-0-0-|
G|-------4--4-------4-4-4-|---------x----------x-----|
D|---5--------5-5-5-------|----7----7----7-7-7-7-----|
A|---3--------3-3-3-------|----5----5----5-5-5-5-----|
E|------------------------|--------------------------|

     ~~~~~~~~~~~~~~~~~~~~~~~~~~~~~~~~~~~~~~~~~~~~~~~~~
     W                        +W
e|-<12>-------------------|-(<12>)-------------------|
B|------------------------|--------------------------|
G|------------------------|--------------------------|
D|------------------------|--------------------------|
A|------------------------|--------------------------|
E|------------------------|--------------------------|

   E5                                        DsusCmaj7
    Q   E. S S S E S S S S     Q    E. S S S E E E
e|--0---0--0-0-0---0-0-0-0-|---0----0--0-0-0-0-0-0--|
B|--0---0--0-0-0---0-0-0-0-|---0----0--0-0-0-0-0-0--|
G|--9---9--9-9-9---9-9-9-9-|---9----9--9-9-9-x-x-x--|
D|--9--------------9-9-9-9-|---9-------------7-7-5--|
A|--7------------7-7-7-7-7-|---7-------------5-5-3--|
E|--0----------------------|------------------------|
 
  ~~~~~~~~~~~~~~~~~~~~~~~~~~~~~~~~~
    W                         +W
e|-<7>---------------------|-(<7>)------------------|
B|-------------------------|------------------------|
G|-------------------------|------------------------|
D|-------------------------|------------------------|
A|-------------------------|------------------------|
E|-------------------------|------------------------|

[Chorus]
   Cadd9                        D5/A
   Q   E.   S  S  S E S S S S    Q   E.   S  S  S E S S S S
e|-3---3----3--3--3-3-3-3-3-3-|-----------------------------|
B|-3---3----3--3--3-3-3-3-3-3-|--3---3----3--3--3-3-3-3-3-3-|
G|-0---0----0--0--0-0-0-0-0-0-|--2---2----2--2--2-2-2-2-2-2-|
D|-2---2----2--2--2-2-2-2-2-2-|--0---0----0--0--0-0-0-0-0-0-|
A|-3---3----3--3--3-3-3-3-3-3-|--0---0----0--0--0-0-0-0-0-0-|
E|----------------------------|-----------------------------|

   Q.     E   +H                 Q.     E   +H
e|-7--------------------------|-----------------------------|
B|--------8---(8)-------------|-10------7---(7)-------------|
G|----------------------------|-----------------------------|
D|----------------------------|-----------------------------|
A|----------------------------|-----------------------------|
E|----------------------------|-----------------------------|

   E5
   Q  E.   S  S  S E S S  S  S     Q   E. S S S E E S S
e|-0--0----0--0--0-0-0-0--0--0-|---0---0--0-0-0----------|
B|-0--0----0--0--0-0-0-0--0--0-|---0---0--0-0-0-3-3-3-3--|
G|-4--4----4--4--4-4-4-4--4--4-|---4---4--4-4-4-2-2-2-2--|
D|-2--2----2--2--2-2-2-2--2--2-|---2---2--2-2-2-0-0-0-0--|
A|-2--2----2--2--2-2-2-2--2--2-|---2---2--2-2-2-0-0-0-0--|
E|-0--0----0--0--0-0-0-0--0--0-|---0---0--0-0-0----------|

   Q  E  E   +Q.         +E        Q   Q    Q     Q
e|-----------------------------|-------------------------|
B|-3h=5--5---(5)---------(5)S==|==12--10----8-----7------|
G|-----------------------------|-/12--11----9-----7------|
D|-----------------------------|-------------------------|
A|-----------------------------|-------------------------|
E|-----------------------------|-------------------------|

   Cadd9                        D5/A                      E5
   Q   E.   S  S  S E S S S S    Q   E.   S  S  S E E E   W          +W
e|-3---3----3--3--3---3-3-3-3-|-------------------------|-0--------|-(0)----|
B|-3---3----3--3--3---3-3-3-3-|--3---3----3--3--3-3-3-3-|-0--------|-(0)----|
G|-0---0----0--0--0---0-0-0-0-|--2---2----2--2--2-2-2-2-|-4--------|-(4)----|
D|-2---2----2--2--2---2-2-2-2-|--0---0----0--0--0-0-0-0-|-2--------|-(2)----|
A|-3---3----3--3--3-3-3-3-3-3-|--0---0----0--0--0-0-0-0-|-2--------|-(2)----|
E|----------------------------|-------------------------|-0--------|-(0)----|

   Q.     E   +H                 Q.     E   +H            W          +W
e|-7--------------------------|-------------------------|----------|--------|
B|--------8---(8)-------------|-10------7---(7)---------|-5--------|-(5)----|
G|----------------------------|-------------------------|----------|--------|
D|----------------------------|-------------------------|----------|--------|
A|----------------------------|-------------------------|----------|--------|
E|----------------------------|-------------------------|----------|--------|

[Verse]
   Cmaj7                 Dsus2add6
   Q  E. S S S E E S S   Q  E. S S S E E S S
e|----0--0-------0-0-0-|----0--0-------0-0-0-|
B|----0--0-------0-0-0-|----0--0-------0-0-0-|
G|----4--4-------4-4-4-|----x----------x-----|
D|-5-------5-5-5-------|-7--7----7-7-7-7-----|
A|-3-------3-3-3-------|-5--5----5-5-5-5-----|
E|---------------------|---------------------|

(Gtr 3)
   W                     W
e|---------------------|---------------------|
B|---------------------|---------------------|
G|---------------------|---------------------|
D|-5-------------------|-7-------------------|
A|-3-------------------|-5-------------------|
E|---------------------|---------------------|

   E5                                   DsusCmaj7
   Q  E. S S S E S S S S    Q  E. S S S E E E
e|-0--0--0-0-0---0-0-0-0-|--0--0--0-0-0-0-0-0--|
B|-0--0--0-0-0---0-0-0-0-|--0--0--0-0-0-0-0-0--|
G|-9--9--9-9-9---9-9-9-9-|--9--9--9-9-9-x-x-x--|
D|-9-------------9-9-9-9-|--9-----------7-7-5--|
A|-7-----------7-7-7-7-7-|--7-----------5-5-3--|
E|-0---------------------|---------------------|

   W                        Q  Q    Q     Q
e|-----------------------|---------------------|
B|-----------------------|---------------------|
G|-----------------------|---------------------|
D|-9---------------------|---------------------|
A|-7---------------------|-10--9----7-----5----|
E|-----------------------|---------------------|

   Cmaj7                 Dsus2add6
   Q  E. S S S E E S S   Q  E. S S S E E S S
e|----0--0-------0-0-0-|----0--0-------0-0-0-|
B|----0--0-------0-0-0-|----0--0-------0-0-0-|
G|----4--4-------4-4-4-|----x----------x-----|
D|-5-------5-5-5-------|-7--7----7-7-7-7-----|
A|-3-------3-3-3-------|-5--5----5-5-5-5-----|
E|---------------------|---------------------|

   W                     W
e|---------------------|---------------------|
B|---------------------|---------------------|
G|---------------------|---------------------|
D|---------------------|-7-------------------|
A|-3-------------------|-5-------------------|
E|---------------------|---------------------|

   E5                                    DsusCmaj7
   Q  E. S S S E S S S S    Q   E. S S S E E E
e|-0--0--0-0-0---0-0-0-0-|--0---0--0-0-0-0-0-0--|
B|-0--0--0-0-0---0-0-0-0-|--0---0--0-0-0-0-0-0--|
G|-9--9--9-9-9---9-9-9-9-|--9---9--9-9-9-x-x-x--|
D|-9-------------9-9-9-9-|--9------------7-7-5--|
A|-7-----------7-7-7-7-7-|--7------------5-5-3--|
E|-0---------------------|----------------------|

   W                       +W
e|-----------------------|----------------------|
B|-----------------------|----------------------|
G|-----------------------|----------------------|
D|-9---------------------|-(9)------------------|
A|-7---------------------|-(7)------------------|
E|-----------------------|----------------------|

   Cmaj7                    Dsus2add6
(Gtr 1)
     Q   E. S S S E E S S    Q  E. S S S E E S S
e|-------0--0-------0-0-0-|-----0--0-------0-0-0-|
B|-------0--0-------0-0-0-|-----0--0-------0-0-0-|
G|-------4--4-------4-4-4-|-----x----------x-----|
D|---5--------5-5-5-------|--7--7----7-7-7-7-----|
A|---3--------3-3-3-------|--5--5----5-5-5-5-----|
E|------------------------|----------------------|

(Gtr 2)
     W                       W
e|-<12>-------------------|----------------------|
B|------------------------|-10-------------------|
G|------------------------|----------------------|
D|------------------------|----------------------|
A|------------------------|----------------------|
E|------------------------|----------------------|

(Gtr 3)
     W                       W
e|------------------------|----------------------|
B|------------------------|----------------------|
G|------------------------|----------------------|
D|---5--------------------|--7-------------------|
A|---3--------------------|--5-------------------|
E|------------------------|----------------------|

   E5                                        DsusCmaj7
   Q   E.   S S S E S S S S   Q   E.   S S S E E E
e|-0---0----0-0-0---0-0-0-0-|-0---0----0-0-0-0-0-0---|
B|-0---0----0-0-0---0-0-0-0-|-0---0----0-0-0-0-0-0---|
G|-9---9----9-9-9---9-9-9-9-|-9---9----9-9-9-x-x-x---|
D|-9----------------9-9-9-9-|-9--------------7-7-5---|
A|-7--------------7-7-7-7-7-|-7--------------5-5-3---|
E|-0------------------------|------------------------|

              <
   H          E   E E   E     E E E  E   E   E E E
e|------------0---0-0---0---|-0-0-0--0---0---0-0-0---|
B|------------5---5-5---5---|-5-5-5--5---5---5-5-5---|
G|--------------------------|------------------------|
D|--------------------------|------------------------|
A|--------------------------|------------------------|
E|--------------------------|------------------------|

   E E E  E   E   E E   E     E E E  E   E   E E E
e|--------------------------|------------------------|
B|--------------------------|------------------------|
G|--------------------------|------------------------|
D|--------------------------|------------------------|
A|-7-7-7--7---7---7-7---7---|-7-7-7--7---7---7-7-7---|
E|--------------------------|------------------------|

[Chorus]
   Cadd9                        D5/A
    Q    E.   S S S E S S S S   Q    E.   S S S E S S S S
e|--3----3----3-3-3-3-3-3-3-3-|---------------------------|
B|--3----3----3-3-3-3-3-3-3-3-|-3----3----3-3-3-3-3-3-3-3-|
G|--0----0----0-0-0-0-0-0-0-0-|-2----2----2-2-2-2-2-2-2-2-|
D|--2----2----2-2-2-2-2-2-2-2-|-0----0----0-0-0-0-0-0-0-0-|
A|--3----3----3-3-3-3-3-3-3-3-|-0----0----0-0-0-0-0-0-0-0-|
E|----------------------------|---------------------------|

    E  E E  E   E   E E   E     E  E E  E   E   E E   E
e|--7-------7---------7-------|----7--------7---------7---|
B|-----8--------8---------8---|------8----------8---------|
G|-------9----------9---------|-9-------9---------9-------|
D|----------------------------|---------------------------|
A|----------------------------|---------------------------|
E|----------------------------|---------------------------|

    H.                Q         H.                Q
e|-^3-----------------3-------|---------------------------|
B|-^3-----------------3-------|-3-----------------3-------|
G|-^0-----------------0-------|-2-----------------2-------|
D|-^x-------------------------|-0-----------------0-------|
A|-^3-------------------------|-0-----------------0-------|
E|----------------------------|---------------------------|

   E5                                          D5/A
   Q   E.   S S S E S S S S   Q   E.   S  S  S E E S S
e|-0---0----0-0-0-0-0-0-0-0-|-0---0----0--0--0---------|
B|-0---0----0-0-0-0-0-0-0-0-|-0---0----0--0--0-3-3-3-3-|
G|-4---4----4-4-4-4-4-4-4-4-|-4---4----4--4--4-2-2-2-2-|
D|-2---2----2-2-2-2-2-2-2-2-|-2---2----2--2--2-0-0-0-0-|
A|-2---2----2-2-2-2-2-2-2-2-|-2---2----2--2--2-0-0-0-0-|
E|-0---0----0-0-0-0-0-0-0-0-|-0---0----0--0--0---------|

   Q   E  E   E   E E   E     E E E  E    E    E E E
e|-----7----------7---------|-7------7-----------------|
B|--------8---------8-------|---8---------8------8-----|
G|-9----------9---------9---|-----9------------9---9---|
D|--------------------------|--------------------------|
A|--------------------------|--------------------------|
E|--------------------------|--------------------------|

   H.               Q         Q   Q      +E    E E E
e|-0----------------0-------|-----0------(0)-----------|
B|-0----------------0-------|-----0------(0)---3-3-3---|
G|-4------------------------|------------------2-2-2---|
D|-2------------------------|------------------0-0-0---|
A|-2------------------------|------------------0-0-0---|
E|-0------------------------|-0------------------------|

   Cadd9                             D5/A
    Q     E.    S  S S E  S S  S S    Q     E. S  S S  E  S S  S S
e|--3-----3-----3--3-3-3--3-3--3-3-|-------------------------------|
B|--3-----3-----3--3-3-3--3-3--3-3-|--3-----3--3--3-3--3--3-3--3-3-|
G|--0-----0-----0--0-0-0--0-0--0-0-|--2-----2--2--2-2--2--2-2--2-2-|
D|--2-----2-----2--2-2-2--2-2--2-2-|--0-----0--0--0-0--0--0-0--0-0-|
A|--3-----3-----3--3-3-3--3-3--3-3-|--0-----0--0--0-0--0--0-0--0-0-|
E|---------------------------------|-------------------------------|

    E  E  E   E    Q      E    E      E  E  Q     E    E  E    E
e|-12--------12----------12--------|----12-------12-----------12---|
B|----12----------12----------12---|-------12---------12-----------|
G|-------12------------------------|-12------------------12--------|
D|---------------------------------|-------------------------------|
A|---------------------------------|-------------------------------|
E|---------------------------------|-------------------------------|

    Q     H               E    E      Q     H             E    E
e|---------------------------------|-------------------------------|
B|--3-----3---------------3--------|--3-----3-------------3----0---|
G|--0-----0---------------0----2---|--2-----2-------------2----0---|
D|--x-----x---------------x----0---|--0-----0-------------0--------|
A|--3-----3---------------3--------|--0-----0-------------0--------|
E|---------------------------------|-------------------------------|

   E5                                                    D5/A
    Q     E.    S  S S  E  S S  S S    Q     E.   S  S S E  E  S S
e|--0-----0-----0--0-0--0--0-0--0-0-|--0-----0----0--0-0------------|
B|--0-----0-----0--0-0--0--0-0--0-0-|--0-----0----0--0-0-3--3--3-3--|
G|--4-----4-----4--4-4--4--4-4--4-4-|--4-----4----4--4-4-2--2--2-2--|
D|--2-----2-----2--2-2--2--2-2--2-2-|--2-----2----2--2-2-0--0--0-0--|
A|--2-----2-----2--2-2--2--2-2--2-2-|--2-----2----2--2-2-0--0--0-0--|
E|--0-----0-----0--0-0--0--0-0--0-0-|--0-----0----0--0-0------------|

    E  E  E   E    E    E  E    E      E  E  E  E    E   E  E  E
e|-------12------------12-----------|-12--------0-------------------|
B|-12--------12-----------12--------|----12---------12-----12-10----|
G|----12----------12-----------12---|-------12----------------------|
D|----------------------------------|-------------------------------|
A|----------------------------------|-------------------------------|
E|----------------------------------|-------------------------------|

    Q     E.    S  S S  E  S S  S S    Q     E  E    E   E  E  E
e|--------0-----0---------------0-0-|--------0--0----0--------------|
B|--0-----0-----0---------------0-0-|--------0--0----0---3--3--3----|
G|--4-----4--------0h2--2--2p0--0-0-|--------4--4----4---2--2--0----|
D|--2-----2-------------------------|--------------------0--0--0----|
A|--2-------------------------------|--2----------------------------|
E|--0-------------------------------|--0----------------------------|

   Cadd9                          D5/A
    Q    E.    S S S E S S  S S    Q    E.    S S S E S S  S S
e|--3----3-----3-3-3-3-3-3--3-3-|------------------------------|
B|--3----3-----3-3-3-3-3-3--3-3-|--3----3-----3-3-3-3-3-3--3-3-|
G|--0----0-----0-0-0-0-0-0--0-0-|--2----2-----2-2-2-2-2-2--2-2-|
D|--2----2-----2-2-2-2-2-2--2-2-|--0----0-----0-0-0-0-0-0--0-0-|
A|--3----3-----3-3-3-3-3-3--3-3-|--0----0-----0-0-0-0-0-0--0-0-|
E|------------------------------|------------------------------|

    E  E E   E   Q     E    E      E  E E   E   Q     E    E
e|-------0-------0-----0--------|-------0-------0-----0--------|
B|-10s12----12-------------12---|-10s12----12-------------12---|
G|------------------------------|------------------------------|
D|------------------------------|------------------------------|
A|------------------------------|------------------------------|
E|------------------------------|------------------------------|

    Q    H             E    E      Q    H             E    E
e|-------3----------------------|---------------------0----0---|
B|--3----3-------------3----3---|--3----3-------------3----3---|
G|--0----0-------------0----0---|--2----2-------------2--------|
D|--x----x-------------x----0---|--0----0-------------0--------|
A|--3----3-------------3--------|--0----0-------------0--------|
E|------------------------------|------------------------------|

   E5                                                 D5/A
    Q    E.    S S S E S S  S S    Q    E.    S  S  S  E  E  S S
e|--0----0-----0-0-0-0-0-0--0-0-|--0----0-----0--0--0------------|
B|--0----0-----0-0-0-0-0-0--0-0-|--0----0-----0--0--0--3--3--3-3-|
G|--4----4-----4-4-4-4-4-4--4-4-|--4----4-----4--4--4--2--2--2-2-|
D|--2----2-----2-2-2-2-2-2--2-2-|--2----2-----2--2--2--0--0--0-0-|
A|--2----2-----2-2-2-2-2-2--2-2-|--2----2-----2--2--2--0--0--0-0-|
E|--0----0-----0-0-0-0-0-0--0-0-|--0----0-----0--0--0------------|

    E  E E   E   Q     E    E      E  E E   E    E     E  E  E
e|-------0-------0-----0--------|-------0--------0---------------|
B|-10s12----12-------------12---|-10s12----12---------13-12-10---|
G|------------------------------|--------------------------------|
D|------------------------------|--------------------------------|
A|------------------------------|--------------------------------|
E|------------------------------|--------------------------------|

    Q    H             Q           Q    Q       +E     E  E  E
e|-------0-------------0--------|-------0-------(0)--------------|
B|-------0-------------0--------|-------0-------(0)----3--3--3---|
G|-------4-------------4--------|-------4-------(4)----2--2--2---|
D|---------------------2--------|-------2-------(2)----0--0--0---|
A|--2------------------2--------|--2-------------------0--0--0---|
E|--0------------------0--------|--0-----------------------------|

   Cadd9                                      D5/A
    Q        E.    S   S  S E     S S  S  S    Q    E.    S   S  S E  S S  S S
e|--3--------3-----3---3--3-3-----3-3--3--3-|----------------------------------|
B|--3--------3-----3---3--3-3-----3-3--3--3-|--3----3-----3---3--3-3--3-3--3-3-|
G|--0--------0-----0---0--0-0-----0-0--0--0-|--2----2-----2---2--2-2--2-2--2-2-|
D|--2--------2-----2---2--2-2-----2-2--2--2-|--0----0-----0---0--0-0--0-0--0-0-|
A|--3--------3-----3---3--3-3-----3-3--3--3-|--0----0-----0---0--0-0--0-0--0-0-|
E|------------------------------------------|----------------------------------|

    S  E  S  E   E    +E.      S  E    S  S    E E  E   E    +Q       E    E
e|----12--------15---(15)-------------------|----0-----17---(17)-----17p==14---|
B|-------10---------------------------------|------15--------------------------|
G|-12-------12----------------12-12---12-12-|-14-------------------------------|
D|----------------------------12-12---12-12-|----------------------------------|
A|------------------------------------------|----------------------------------|
E|------------------------------------------|----------------------------------|

    Q        Q         E    E     E    E       Q    Q        +E    E  E    E
e|--------------------------------3---------|--0----0--------(0)------0--------|
B|--3--------3--------------------3---------|--3----3--------(3)------3--------|
G|--0--------0--------------------0---------|--2----2--------(2)---2--2--------|
D|--x--------x-------------------------0----|--0----0--------(0)---0-------0---|
A|--3--------3---------3----3---------------|--0----0--------(0)---0-------0---|
E|------------------------------------------|----------------------------------|

   E5                                                         D5/A
    Q          E.    S  S  S  E  S S  S S    Q    E.   S  S S E  E S S
e|--0----------0-----0--0--0--0--0-0--0-0-|--0----0----0--0-0----------|
B|--0----------0-----0--0--0--0--0-0--0-0-|--0----0----0--0-0-3--3-3-3-|
G|--4----------4-----4--4--4--4--4-4--4-4-|--4----4----4--4-4-2--2-2-2-|
D|--2----------2-----2--2--2--2--2-2--2-2-|--2----2----2--2-2-0--0-0-0-|
A|--2----------2-----2--2--2--2--2-2--2-2-|--2----2----2--2-2-0--0-0-0-|
E|--0----------0-----0--0--0--0--0-0--0-0-|--0----0----0--0-0----------|

   |--3--|
   S  S  S E  E   E    E     E  E    E      E E  E  E    E   E  E E
E|-15h17p15-0-----------------------------|----0-----0--------0----0---|
B|------------12--13---12------------12---|-12---13------15-----17-----|
G|---------------------------12-14--------|----------------------------|
D|----------------------------------------|----------------------------|
A|----------------------------------------|----------------------------|
E|----------------------------------------|----------------------------|

    Q          E   E   +E     E  E    E      Q    Q       E   E  E E
e|-------------0---0---(0)----0--0----0---|--0----0--------------------|
B|-------------0---0---(0)----0--0----0---|--0----0-----------3--3-----|
G|-------------4---4---(4)----4--4----4---|--4----4-----------2--2-0---|
D|----------------------------------------|--2----2-----------0--0-0---|
A|--2-------------------------------------|--2----2-----------0--0-0---|
E|--0-------------------------------------|--0----0-------0------------|

[Bridge]
   C/G                        D/A
   Q  E S S S S E   E   E     Q  E S S E   S S S S S S
e|--------------------------|--------------------------|
B|--------------------------|--------------------------|
G|-0--0-x-x-x-x-x---x---x---|--------------------------|
D|-2--2-x-x-x-x-x---x---x---|-4--4-x-x-x---x-x-x-x-x-x-|
A|-3--3-x-x-x-x-x---x---x---|-5--5-x-x-x---x-x-x-x-x-x-|
E|-3--3-x-x-x-x-x---x---x---|-5--5-x-x-x---x-x-x-x-x-x-|

   Q  E E   H                 Q  E E   H
e|--------------------------|--------------------------|
B|--------------------------|--------------------------|
G|-0--0---------------------|--------------------------|
D|-2--2---------------------|-4--4---------------------|
A|-3--3---------------------|-5--5---------------------|
E|-3--3---------------------|-5--5---------------------|

   Q  E S S S S S S S S S S   Q  E S S S S S S S S E
e|------x-x---x-x-x-x-x-x-x-|------x-x---x-x-x-x-x-x---|
B|------x-x---x-x-x-x-x-x-x-|------x-x---x-x-x-x-x-x---|
G|-0--0-x-x---x-x-x-x-x-x-x-|------x-x---x-x-x-x-x-x---|
D|-2--2---------------------|-4--4---------------------|
A|-3--3---------------------|-5--5---------------------|
E|-3--3---------------------|-5--5---------------------|

   E5
    Q  E.   S  S  S E  E   S S    Q    E S S  S S E    E   S S
e|--0--0----0--0--0-0--0---0-0-|--0----0-0-0--0-0-0----0---0-0-|
B|--0--0----0--0--0-0--0---0-0-|--0----0-0-0--0-0-0----0---0-0-|
G|--4--4----4--4--4-4--4---4-4-|--4----4-4-4--4-4-4----4---4-4-|
D|--2--2----2--2--2-2--2---2-2-|--2----2-2-2--2-2-2----2---2-2-|
A|--2--2----2--2--2-2--2---2-2-|--2----2-2-2--2-2-2----2---2-2-|
E|--0--0----0--0--0-0--0---0-0-|--0----0-0-0--0-0-0----0---0-0-|

    H         +E    E  E   E      E E  E E    E   E    E   E
e|-!0---------(0)---0------0---|----0----0--------0--------0---|
B|-!0---------(0)-----12-------|-12---12-----12-------12-------|
G|-!4---------(4)--------------|-------------------------------|
D|-!2---------(2)--------------|-------------------------------|
A|-!2---------(2)--------------|-------------------------------|
E|-!0---------(0)--------------|-------------------------------|

    Q  S  E S  S  S E  S S S S    Q    E S S  S S S S  S S S S
e|--0--x--x-x-----x----x-x-x-x-|--0----0-x-x--x-0-0-0--0-0-x-x-|
B|--0--x--x-x-----x----x-x-x-x-|--0----0-x-x--x-0-0-0--0-0-x-x-|
G|--4--x--x-x-----x----x-x-x-x-|--4----4-x-x--x-4-4-4--4-4-x-x-|
D|--2--------------------------|--2----2-----------------------|
A|--2--------------------------|--2----2-----------------------|
E|--0---------------0----------|--0----0-----------------------|

   C/G                        D/A
   Q  E S S S S E   E   E     Q  E S S E   S S S S S S
e|--------------------------|--------------------------|
B|--------------------------|--------------------------|
G|-0--0-x-x-x-x-x---x---x---|--------------------------|
D|-2--2-x-x-x-x-x---x---x---|-4--4-x-x-x---x-x-x-x-x-x-|
A|-3--3-x-x-x-x-x---x---x---|-5--5-x-x-x---x-x-x-x-x-x-|
E|-3--3-x-x-x-x-x---x---x---|-5--5-x-x-x---x-x-x-x-x-x-|

   Q  E E   H                 Q  E E   H
e|--------------------------|--------------------------|
B|--------------------------|--------------------------|
G|-0--0---------------------|--------------------------|
D|-2--2---------------------|-4--4---------------------|
A|-3--3---------------------|-5--5---------------------|
E|-3--3---------------------|-5--5---------------------|

   Q  E S S S S S S S S S S   Q  E S S S S S S S S E
e|------x-x---x-x-x-x-0-0-0-|-0--0-x-x---x-x-x-x-x-x---|
B|------x-x---x-x-x-x-0-0-0-|-0--0-x-x---x-x-x-x-x-x---|
G|-0--0-x-x---x-x-x-x-------|-x--x-x-x---x-x-x-x-x-x---|
D|-2--2---------------------|-4--4---------------------|
A|-3--3---------------------|-5--5---------------------|
E|-3--3---------------------|-5--5---------------------|

   E5
    Q  E. S  S  S E  E S S    Q    E  S S  S S E  E S S
e|--0--0--0--0--0-0--0-0-0-|--0----0--0-0--0-0-0--0-0-0-|
B|--0--0--0--0--0-0--0-0-0-|--0----0--0-0--0-0-0--0-0-0-|
G|--4--4--4--4--4-4--4-4-4-|--4----4--4-4--4-4-4--4-4-4-|
D|--2--2--2--2--2-2--2-2-2-|--2----2--2-2--2-2-2--2-2-2-|
A|--2--2--2--2--2-2--2-2-2-|--2----2--2-2--2-2-2--2-2-2-|
E|--0--0--0--0--0-0--0-0-0-|--0----0--0-0--0-0-0--0-0-0-|

    H       +E    E  E E      E E  E  E    E   E  E E
e|-!0-------(0)---0----0---|----0-----0--------0----0---|
B|-!0-------(0)-----12-----|-12---12------12-----12-----|
G|-!4-------(4)------------|----------------------------|
D|-!2-------(2)------------|----------------------------|
A|-!2-------(2)------------|----------------------------|
E|-!0-------(0)------------|----------------------------|

    Q  E. S  S  S E  E S S    Q    E.   S  S S E  E E
e|--0--0--x--x--x-0--0-0-0-|--0----0----0--x-x----------|
B|--0--0--x--x--x-0--0-0-0-|--0----0----0--x-x-3--3-----|
G|--4--4--x--x--x-4--4-4-4-|--4----4----4--x-x-2--2-0---|
D|--2--2----------2--2-2-2-|--2----2-----------0--0-x---|
A|--2--2----------2--2-2-2-|--2----2----------------3---|
E|--0--0----------0--0-0-0-|--0----0--------------------|

   Csus2               D5/A
(Gtr 2)
   Q  Q    E   E E E    Q   Q     E    E  E  E
e|-------------------|-------------------------|
B|-------------------|-------------------------|
G|-9--9----9---9-9-9-|-11--11----11---11-11-11-|
D|-x--x----x---x-x-x-|--x---x-----x----x--x--x-|
A|-7--7----7---7-7-7-|--9---9-----9----9--9--9-|
E|-------------------|-------------------------|

(Gtr 3)
 | Q  E. S S S E E E    Q   E. S  S S  E  E  E
e|-3--3--3-3-3-3-3-3-|-------------------------|
B|-3--3--3-3-3-3-3-3-|--3---3--3--3-3--3--3--3-|
G|-0--0--0-0-0-0-0-0-|--2---2--2--2-2--2--2--2-|
D|-x--x--x-x-x-x-x-x-|--0---0--0--0-0--0--0--0-|
A|-3--3--3-3-3-3-3-3-|--0---0--0--0-0--0--0--0-|
E|-------------------|-------------------------|

   E5                                              D5/A
    Q   Q     E     E  E    E      E S S  E  S S E S S E S S
e|------------------------------|----------------------------|
B|------------------------------|----------------------------|
G|-12--12----12----12-12---12---|-12-x-x-11--x-x-9-x-x-7-x-x-|
D|--x---x-----x-----x--x----x---|--x-x-x--x--x-x-x-x-x-x-x-x-|
A|-10--10----10----10-10---10---|-10-x-x--9--x-x-7-x-x-5-x-x-|
E|------------------------------|----------------------------|

    Q   E. S  S  S  E  S S  S S    Q      E.   S E E   E E
e|------0--0--------------------|---------0----0-0-----------|
B|------0--0--8s10-10-10-8--8-8-|---------0----0-0-3---3-----|
G|------4-----x-----x--x-x--x-x-|---------4----4-4-2---2-----|
D|------------5s=7--7--7-5--5-5-|---------2------2-0---0-----|
A|------------------------------|----------------2-0---0-0---|
E|--0---------------------------|--0-------------0-------0---|

   Csus2               D5/A
   Q  Q    E   E E E   Q  Q    E   E E E
e|-------------------|-------------------|
B|-------------------|-------------------|
G|-5--5----5---5-5-5-|-7--7----7---7-7-7-|
D|-x--x----x---x-x-x-|-x--x----x---x-x-x-|
A|-3--3----3---3-3-3-|-5--5----5---5-5-5-|
E|-------------------|-------------------|

   Q  E. S S S E E E   Q  E. S S S E E E
e|-3--3--3-3-3-3-3-3-|-------------------|
B|-3--3--3-3-3-3-3-3-|-3--3--3-3-3-3-3-3-|
G|-0--0--0-0-0-0-0-0-|-2--2--2-2-2-2-2-2-|
D|-x--x--x-x-x-x-x-x-|-0--0--0-0-0-0-0-0-|
A|-3--3--3-3-3-3-3-3-|-0--0--0-0-0-0-0-0-|
E|-------------------|-------------------|

   E5                                         D5/A
   Q  Q    S  S  E  S S S  S    E E  E  E   E E E E
e|---------------------------|----------------------|
B|---------------------------|----------------------|
G|-9--9----9--9--9--9-9-9-12-|-12---11------9---7---|
D|-x--x----x--x--x--x-x-x--x-|--x----x------x---x---|
A|-7--7----7--7--7--7-7-7-10-|-10----9------7---5---|
E|---------------------------|----------------------|

   Q  E. S S  S  E  S S S  S    Q    E.   S E E E E
e|----0--0-------------------|-------0----0-0-------|
B|----0--0-8s10-10-10-8-8--8-|-------0----0-0-3-3---|
G|----4----x-----x--x-x-x--x-|-------4----4-4-2-2---|
D|---------5s=7--7--7-5-5--5-|-------2------2-0-0---|
A|---------------------------|--------------2-0-0-0-|
E|-0-------------------------|--0-----------0-----0-|

   Cadd9      D/A
   >
   W           W
e|----------|-^2---------|
B|----------|-^3---------|
G|-5--------|-^2---------|
D|-x--------|-^0---------|
A|-3--------|-^0---------|
E|----------|------------|

   >
   W           H    H
e|-3--------|--3---------|
B|-3--------|--3---------|
G|-0--------|--0---------|
D|-x--------|--x---------|
A|-3--------|--3---------|
E|----------|------------|

   Em
(Gtr 1)
   E E E E +E  E Q    E E E E +E  E Q
e|------------------|------------------|
B|------------------|------------------|
G|-------0-(0)------|-------0-(0)------|
D|-----9-------9----|-----9-------9----|
A|---7-----------7--|---7-----------7--|
E|-0----------------|-0----------------|

   Cmaj7         Dsus2add6     E5
   E E H.        E E H.        W          +W
e|-------------|-------------|----------|--------|
B|-----0-------|-----0-------|----------|--------|
G|-------------|-------------|----------|--------|
D|---5---------|---7---------|----------|--------|
A|-3-----------|-5-----------|----------|--------|
E|-------------|-------------|-0--------|-(0)----|

   C5                  D5                E5                          D5  C5
(Gtr 1)
   E E E E E E E   E   Q   E E E E E E   Q   E E E E E E   E E E E E E E S S
e|-3-3-3-3-3-3-3---3-|-----------------|-0---0-0-0-0-0-0-|-0-0-0-0-0-2-2-------|
B|-3-3-3-3-3-3-3---3-|-3---3-3-3-3-3-3-|-0---0-0-0-0-0-0-|-0-0-0-0-0-3-3-3-3---|
G|-0-0-0-0-0-0-0---0-|-2---2-2-2-2-2-2-|-4---4-4-4-4-4-4-|-4-4-4-4-4-2-2-0-0---|
D|-------------------|-0---0-0-0-0-0-0-|-2---2-2-2-2-2-2-|-2-2-2-2-2-0-0-------|
A|-------------------|-----------------|-----------------|---------------------|
E|-------------------|-----------------|-----------------|---------------------|

(Gtr 3)
| PM--------------------------------------------------------------|
  E E E E E E E a E   E E E E E E E E   E E E E E E E E   E E E E E E E E
|-------------------|-----------------|-----------------|---------------------|
|-------------------|-----------------|-----------------|---------------------|
|-------------------|-----------------|-----------------|---------------------|
|-5-5-5-5-5-5-5-----|-7-7-7-7-7-7-7-7S|=9-9-9-9-9-9-9-9-|-9-9-9-9-9-7-7-5-----|
|-3-3-3-3-3-3-3-3s5-|-5-5-5-5-5-5-5-5S|=7-7-7-7-7-7-7-7-|-7-7-7-7-7-5-5-3-----|
|-------------------|-----------------|-0-0-0-0-0-0-0-0-|-0-0-0-0-0-----------|

                   D5
(Gtr 2)
   E E E E E E E   E   E E E E E E E E
e|-7-----7-----7-----|---7-----7-----7-|
B|---8-----8-------8-|-----8-----8-----|
G|-----9-----9-------|-9-----9-----9---|
D|-------------------|-----------------|
A|-------------------|-----------------|
E|-------------------|-----------------|

(Gtr 1)
   Q   E E E E E   E   E E E E E E E E
e|-------------------|-----------------|
B|-3---3-3-3-3-3---3-|-3-3-3-3-3-3-3-3-|
G|-0---0-0-0-0-0---0-|-2-2-2-2-2-2-2-2-|
D|-x---x-x-x-x-x---x-|-0-0-0-0-0-0-0-0-|
A|-3---3-3-3-3-3---3-|-----------------|
E|-------------------|-----------------|

(Gtr 3)
   PM--|     PM
   E E E E E E E a E   E E E E E E E E
e|-------------------|-----------------|
B|-------------------|-----------------|
G|-------------------|-----------------|
D|-5-5-5-----5-5-5s7-|-7-7-7-7-7-7-7---|
A|-3-3-3-----3-3-3s5-|-5-5-5-5-5-5-5---|
E|-------0-0---------|---------------0-|

   E5                                      D5
   E E E E E E Q     E    E   E    E   E    E   Q
e|-----7-----7-----|-0--------0--------0--------0-------|
B|-8-----8-----8---|-----12-------12-------10-----------|
G|---9-----9-------|------------------------------------|
D|-----------------|------------------------------------|
A|-----------------|------------------------------------|
E|-----------------|------------------------------------|

   E E E E E E E E   S S  S S S S  S S S S  S S S S S S
e|-0-0-0-0-0-0-0-0-|-0-0--0-0-0-0--0-0-0-0--0-0-0-0-0-0-|
B|-0-0-0-0-0-0-0-0-|-0-0--0-0-0-0--0-0-0-0--0-0-0-0-0-0-|
G|-4-4-4-4-4-4-4-4-|-4-4--4-4-4-4--4-4-4-4--4-4-4-4-4-4-|
D|-2-2-2-2-2-2-2-2-|-2-2--2-2-2-2--2-2-2-2--2-2-2-2-2-2-|
A|-----------------|------------------------------------|
E|-----------------|------------------------------------|

   E E E E E E E E   S S  S S S S  S S S S  S S S S S S
e|-----------------|------------------------------------|
B|-----------------|------------------------------------|
G|-----------------|------------------------------------|
D|-----------------|-9-9--9-9-9-9--9-9-9-9--7-7-7-7-7-7-|
A|-2-2-2-2-2-2-2-2-|-7-7--7-7-7-7--7-7-7-7--5-5-5-5-5-5-|
E|-0-0-0-0-0-0-0-0-|------------------------------------|

   Csus2                     D5/A
(Gtr 2)
   Q  E  S S S S E S S S S    E.  S  E.  S  S  S  E  S  S  S  S
e|-------------------------|------------------------------------|
B|-------------------------|------------------------------------|
G|-9--9--9-9-9-9-9-9-9-9-9-|-11--11-11--11-11-11-11-11-11-11-11-|
D|-x--x--x-x-x-x-x-x-x-x-x-|--x---x--x---x--x--x--x--x--x--x--x-|
A|-7--7--7-7-7-7-7-7-7-7-7-|--9---9--9---9--9--9--9--9--9--9--9-|
E|-------------------------|------------------------------------|

 (Gtr 3)
   Q  E.   S S S E E   E      Q      E.  S  S  S  E  E     E
e|-3--3----3-3-3-3-3-------|------------------------------------|
B|-3--3----3-3-3-3-3-------|--3------3---3--3--3--3--3----------|
G|-0--0----0-0-0-0-0-------|--2------2---2--2--2--2--2----------|
D|-x--x----x-x-x-x-x-------|--0------0---0--0--0--0--0----------|
A|-3--3----3-3-3-3-3---0---|--0------0---0--0--0--0--0-----0----|
E|-------------------------|-------------------------------0----|

   E5
    S  S  S  S  E   S  S  S  S  E  S  S  S  S
e|--------------------------------------------|
B|--------------------------------------------|
G|-11s12-12-12-12--12-12-12-12-12-12-12-12-12-|
D|--x-----x--x--x---x--x--x--x--x--x--x--x--x-|
A|--9s10-10-10-10--10-10-10-10-10-10-10-10-10-|
E|--------------------------------------------|

    Q           E.     S  S  S  E  S  S  S  S
e|--------------0------0----------------------|
B|--------------0------0----------------------|
G|--------------4-----------------------------|
D|--------------2---------5--7--7--7--5--5--5-|
A|------------------------x--x--x--x--x--x--x-|
E|--0---------------------3--5--5--5--3--3--3-|

    S  S S S  S   S S S S S S S S S S S
e|--------------------------------------|
B|--------------------------------------|
G|-12-12-x-x-11--11-x-9-9-9-9-9-7-7-x-x-|
D|--x--x-x-x--x---x-x-x-x-x-x-x-x-x-x-x-|
A|-10-10-x-x--9---9-x-7-7-7-7-7-5-5-x-x-|
E|--------------------------------------|

    Q         E.      S S S E   E   E
e|------------0-------0-0---------------|
B|------------0-------0-0-3-3---3---3---|
G|------------4---------4-2-2---2---0---|
D|------------2---------2-0-0---0---0---|
A|----------------------2-0-0---0-------|
E|--0-------------------0---------------|

   Csus2                   D5/A
   Q  E. S S S E S S S S   E S S S  S S S  S  S E S S S S
e|-----------------------|--------------------------------|
B|-----------------------|--------------------------------|
G|-5--5--5-5-5-5-5-5-5-5-|-7-7-7-7--7-7-7-(7)-7-7-7-7-7-7-|
D|-x--x--x-x-x-x-x-x-x-x-|-x-x-x-x--x-x-x--x--x-x-x-x-x-x-|
A|-3--3--3-3-3-3-3-3-3-3-|-5-5-5-5--5-5-5-(5)-5-5-5-5-5-5-|
E|-----------------------|--------------------------------|

   Q  E. S S S E E   E     Q     E.     S  S  S E E   E
e|-3--3--3-3-3-3-3-------|--------------------------------|
B|-3--3--3-3-3-3-3-------|-3-----3------3--3--3-3-3-------|
G|-0--0--0-0-0-0-0-------|-2-----2------2--2--2-2-2-------|
D|-x--x--x-x-x-x-x-------|-0-----0------0--0--0-0-0-------|
A|-3--3--3-3-3-3-3---0---|-0-----0------0--0--0-0-0---0---|
E|-----------------------|----------------------------0---|

   E5
   S S S S E  S S S S E S S S S   E  S  S  E  S S S S E S S E
e|------------------------------|------------------------------|
B|------------------------------|------------------------------|
G|-7s9-9-9-9--9-9-9-9-9-9-9-9-9-|-9-12-12-12\-9-9-9s7-7-7s9-9\-|
D|-x---x-x-x--x-x-x-x-x-x-x-x-x-|-x--x--x--x--x-x-x---x-x---x--|
A|-5s7-7-7-7--7-7-7-7-7-7-7-7-7-|-7-10-10-10\-7-7-7s5-5-5s7-7\-|
E|------------------------------|------------------------------|

   Q       E.   S S S E S S S S   Q        E.   S S S E E   E
e|---------0----0---------------|----------0----0-0------------|
B|---------0----0---------------|----------0----0-0-3-3-3---3--|
G|---------4--------------------|----------4------4-2-2-2---0--|
D|---------2------5-7-7-7-5-5-5-|----------2------2-0-0-0---0--|
A|----------------x-x-x-x-x-x-x-|-----------------2-0-0-0------|
E|-0--------------3-5-5-5-3-3-3-|-0---------------0------------|

   Csus2                   D5/A
   Q  E. S S S E S S S S   E. S E  S S +S  S E S S S S
e|-----------------------|-----------------------------|
B|-----------------------|-----------------------------|
G|-5--5--5-5-5-5-5-5-5-5-|-7--7-7--7-7-(7)-7-7-7-7-7-7-|
D|-x--x--x-x-x-x-x-x-x-x-|-x--x-x--x-x-----x-x-x-x-x-x-|
A|-3--3--3-3-3-3-3-3-3-3-|-5--5-5--5-5-(5)-5-5-5-5-5-5-|
E|-----------------------|-----------------------------|

   Q  E. S S S E E   E     Q    E.   S  S  S E E   E
e|-3--3--3-3-3-3-3-------|-----------------------------|
B|-3--3--3-3-3-3-3-------|-3----3----3--3--3-3-3-------|
G|-0--0--0-0-0-0-0-------|-2----2----2--2--2-2-2-------|
D|-x--x--x-x-x-x-x-------|-0----0----0--0--0-0-0-------|
A|-3--3--3-3-3-3-3---0---|-0----0----0--0--0-0-0---0---|
E|-----------------------|-------------------------0---|

   E5
   S S S S S  S S S S S S S S S S  S    S  S  S  S  S  S  S  S  S S S S S S S S
e|-----------------------------------|----------------------------------------0--|
B|-----------------------------------|-------------------------------------------|
G|-7s9-9-9-9--9-9-9-9-9-9-9-9-9-9-12-|-12s14-14-14-14s12-12-12-12s9-9-9-9s7-7----|
D|-x---x-x-x--x-x-x-x-x-x-x-x-x-x--x-|--x-----x--x--x-----x--x--x---x-x-x---x----|
A|-5s7-7-7-7--7-7-7-7-7-7-7-7-7-7-10-|-10s12-12-12-12s10-10-10-10s7-7-7-7s5-5----|
E|-----------------------------------|-------------------------------------------|

   Q       E.     S S S E   S S S  S    Q           E.       S  S S E   E   E
e|---------0------0------------------|--------------0--------0--0----------------|
B|---------0------0------------------|--------------0--------0--0-3-3---3---3----|
G|---------4-------------------------|--------------4-----------4-2-2---2---0----|
D|---------2--------5-7-7---7-5-5--5-|--------------2-----------2-0-0---0---0----|
A|------------------x-x-x---x-x-x--x-|--------------------------2-0-0---0--------|
E|-0----------------3-5-5---5-3-3--3-|--0-----------------------0----------------|

   Csus2                     D5/A
   Q  E  S S S S E S S S S   S S S S E  E   S S E E E
e|-------------------------|--------------------------|
B|-------------------------|--------------------------|
G|-5--5--5-5-5-5-5-5-5-5-5-|-5s7-7-7-7--7---7-7-7-7-7-|
D|-x--x--x-x-x-x-x-x-x-x-x-|-x---x-x-x--x---x-x-x-x-x-|
A|-3--3--3-3-3-3-3-3-3-3-3-|-3s5-5-5-5--5---5-5-5-5-5-|
E|-------------------------|--------------------------|

   Q  E.   S S S E E   E     Q       E.   S S S E E E
e|-3--3----3-3-3-3-3-------|--------------------------|
B|-3--3----3-3-3-3-3-------|-3-------3----3-3-3-3-3---|
G|-0--0----0-0-0-0-0-------|-2-------2----2-2-2-2-2---|
D|-x--x----x-x-x-x-x-------|-0-------0----0-0-0-0-0---|
A|-3--3----3-3-3-3-3---0---|-0-------0----0-0-0-0-0-0-|
E|-------------------------|------------------------0-|

   E5
   E S S E  S S S S E E   E     E  E  E   E   E    E E  E
e|----------------------------|------12-------0------0----|
B|----------------------------|---10-----12-------13---15-|
G|-9-9-9-9--9-9-9-9-9-9---7---|-9-------------------------|
D|-x-x-x-x--x-x-x-x-x-x---x---|-x-------------------------|
A|-7-7-7-7--7-7-7-7-7-7---5---|-7-------------------------|
E|----------------------------|---------------------------|

   Q     E.   S S S E S S S S   Q     E.    S S S  E E  E
e|-------0----0---------------|-------0-----0-0-----------|
B|-------0----0---------------|-------0-----0-0-3--3-3--3-|
G|-------4--------------------|-------4-------4-2--2-2--0-|
D|-------2------5-7-7-7-5-5-5-|-------2-------2-0--0-0--0-|
A|--------------x-x-x-x-x-x-x-|---------------2-0--0-0----|
E|-0------------3-5-5-5-3-3-3-|-0-------------0-----------|

   Csus2                    D5/A
    E  E E  E E   E E  E     E  E  E  E  E  E  E  E
e|-------0----0-----0-<7>-|-----0-------12-----0----|
B|-10s12---12---\10-------|-12-12-12-12----10-10-12-|
G|------------------------|----------12-------------|
D|------------------------|-------------------------|
A|------------------------|-------------------------|
E|------------------------|-------------------------|

    Q    E  E E   E E  E     E  E  E  E  E  E  E  E
e|--3----3--3-3---3-3-----|-------------------------|
B|--3----3--3-3---3-3-----|--3--3--3--3--3--3--3----|
G|--0----0--0-0---0-0--0--|--2--2--2--2--2--2--2--0-|
D|--x----x--x-x---x-x--0--|--0--0--0--0--0--0--0--0-|
A|--3----3--3-3---3-3--0--|--0--0--0--0--0--0--0--0-|
E|------------------------|-------------------------|

   E5
    E  E  E  E E  E E  E    E  E  E  E E  E E  E
e|-----0-------0----0----|--0-----0----0----0----|
B|-12-12-12-12---10---12-|-12-10-10-12---13---12-|
G|-----------------------|-----------------------|
D|-----------------------|-----------------------|
A|-----------------------|-----------------------|
E|-----------------------|-----------------------|

    E  E  E  E E  E E  E    E  E  E  E E  E E  E
e|--0--0--0--0-0--0-0--0-|--0--0--0--0-0---------|
B|--0--0--0--0-0--0-0--0-|--0--0--0--0-0--3-3----|
G|--4--4--4--4-4--4-4--4-|--4--4--4--4-4--2-2--0-|
D|--2--2--2--2-2--2-2--2-|--2--2--2--2-2--0-0--0-|
A|--2--2--2--2-2--2-2--2-|--2--2--2--2-2--0-0--0-|
E|--0--0--0--0-0--0-0--0-|--0--0--0--0-0---------|

   Csus2                  D5/A                   E5
    E  E E  E E  E E  E    E  E E  E E  E E  E   W          +W
e|-------0----0----0----|-------0----0----0----|-0--------|-(0)----*|
B|-15s17---17---17---17-|-15s17---17---17---17-|-0--------|-(0)----*|
G|----------------------|----------------------|-4--------|-(4)----*|
D|----------------------|----------------------|-2--------|-(2)----*|
A|----------------------|----------------------|-2--------|-(2)----*|
E|----------------------|----------------------|-0--------|-(0)----*|

    E  E E  E E  E E  E    E  E E  E E  E E  E   W          +W
e|--3--3-3--3-3--3-3----|----------------------|-0--------|-(0)----*|
B|--3--3-3--3-3--3-3----|--3--3-3--3-3--3-3----|-0--------|--------*|
G|--0--0-0--0-0--0-0----|--2--2-2--2-2--2-2----|-4--------|--------*|
D|--x--x-x--x-x--x-x--0-|--0--0-0--0-0--0-0----|-2--------|--------*|
A|--3--3-3--3-3--3-3--0-|--0--0-0--0-0--0-0--0-|-2--------|--------*|
E|----------------------|--------------------0-|-0--------|--------*|


************************************

| (n)  Ghost note
| x    Dead note
| ~    Vibrato
| /    Slide up
| h    Hammer-on
| p    Pull-off
| >    Accented note
| PM   Palm mute
| \    Slide down
| *    Natural harmonic

************************************
Suggest correction
comments
print report bad tab
4 comments total. Showing first comments.
0 reply
Bearcat510 20 Sep 04, 2007 10:44 AM

great tab, 5 stars, by the far the most inclusive of all the tabs on this site, you even have the lead part going underneath. Thanks for a great tab for a great song.

0 reply
uiop21 349 Nov 26, 2007 05:14 PM

Wonderful, by the far the best so far.

0 reply
Trey3 93 Oct 13, 2009 01:26 PM

i agree with bearcat and uiop, this is just what i was looking for, now i can stop trying to figure out the lead on my own lol. i kinda feel good though cause i got to the second chorus correctly. 5*

guest
You may want to rate the tab now too:
select rating
Wanna post a correction for this tab? Suggest correction