Oops, an error
Loading. Please wait.

Wicked Game Tab

version 3
version 3

Whole song

Interactive

46,388 views 135 this week
7 commentsread comments
1 2 3 4 5
accurate
x 15
add to favorites
launch autoscroll
font size
0
reset
how to read this tab
guitar tuner
Tab Pro tools
  • play this tab
  • loop segment
  • change instrument
  • show fretboard
  • metronome
×
Best way to learn
"Wicked Game"
Autoscroll
slow
fast
+/-
esc
set tempo
stop
Contributor
Difficulty
Tuning
novice
D# G# C# F# A# D#
Song name: Wicked Game
Artist: Stone Sour
Tabbed by: Sergio Hirales
sergiohirales@hotmail.com


Intro:

d#|-2----2--2-2-2-2--------2-0-0--0--0-0-|
A#|-3----3--3-3-3-2-----b3-2-0-0--0--0-0-|
F#|-4----4--4-4-4-2--------2---1--1--1-1-|
C#|-4----4--4-4-4-2--2---------2--2--2-2-|
G#|-2--2-2--------2--2---------2-----2-2-|
D#|----------------------------0-----0-0-|


Solo 1:

d#|-----------------------------------|
A#|------7~--3h5-3--2--2h3-2----------|
F#|--3/5----------------------2h4-4~--|
C#|-----------------------------------|
G#|-----------------------------------|
D#|-----------------------------------|


Verse 1:

    The world was on fire and no one could save me but you.
d#|-2-------------------------2------------------------0----0-0-0--0----0--|
A#|-3-------------------------2------------------------0----0-0-0--0----0--|
F#|-4-------------------------2------------------------1----1-1-1--1----1--|
C#|-4-------------------------2------------------------2--2-2---2--2--2-2--|
G#|-2-------------------------2------------------------2--2-2---2--2--2-2--|
D#|----------------------------------------------------0--0-0---0--0--0-0--|

    It's strange what desire will make foolish people do.
d#|-2-----------------------------2-------------------0----0-0-0--0----0--|
A#|-3-----------------------------2-------------------0----0-0-0--0----0--|
F#|-4-----------------------------2-------------------1----1-1-1--1----1--|
C#|-4-----------------------------2-------------------2--2-2---2--2--2-2--|
G#|-2-----------------------------2-------------------2--2-2---2--2--2-2--|
D#|---------------------------------------------------0--0-0---0--0--0-0--|

    I never dreamed that I'd meet somebody like you...
d#|-2----2----2-2-2------2-----2------2----0---0--0--0-0---0--0--0-0--|
A#|-3----3----3-3-3------2-----2--b3--2----0---0--0--0-0---0--0--0-0--|
F#|-4----4----4-4-4------2-----2------2--------1--1--1-1---1--1--1-1--|
C#|-4----4----4-4-4------2--2--2---------------2--2--2-2---2--2--2-2--|
G#|-2--2-2---------------2--2--2---------------2-----2-2---2-----2-2--|
D#|--------------------------------------------0-----0-0---0-----0-0--|

   And I never dreamed that I   knew somebody like you.
d#|----2----2----2-2-2------2-----2------2----0---0--0--0-0---0--0--0-0--|
A#|----3----3----3-3-3------2-----2--b3--2----0---0--0--0-0---0--0--0-0--|
F#|----4----4----4-4-4------2-----2------2--------1--1--1-1---1--1--1-1--|
C#|----4----4----4-4-4------2--2--2---------------2--2--2-2---2--2--2-2--|
G#|----2--2-2---------------2--2--2---------------2-----2-2---2-----2-2--|
D#|-----------------------------------------------0-----0-0---0-----0-0--|


Chorus:

   No, I-------------     don't want to fall in love.
d#|----2----2--2-2-2------0-----0------0----0---0--0--0-0---0--0--0-0--|
A#|----3----3--3-3-3------2-----2------2----0---0--0--0-0---0--0--0-0--|
F#|----4----4--4-4-4------2-----2------2--------1--1--1-1---1--1--1-1--|
C#|----4----4--4-4-4------2--2--2---------------2--2--2-2---2--2--2-2--|
G#|----2--2-2-------------0--0--0---------------2-----2-2---2-----2-2--|
D#|---------------------------------------------0-----0-0---0-----0-0--|

   No, I-------------     don't want to fall in love.
d#|----2----2--2-2-2------0-----0------0----0---0--0--0-0---0--0--0-0--|
A#|----3----3--3-3-3------2-----2------2----0---0--0--0-0---0--0--0-0--|
F#|----4----4--4-4-4------2-----2------2--------1--1--1-1---1--1--1-1--|
C#|----4----4--4-4-4------2--2--2---------------2--2--2-2---2--2--2-2--|
G#|----2--2-2-------------0--0--0---------------2-----2-2---2-----2-2--|
D#|---------------------------------------------0-----0-0---0-----0-0--|


   With you
d#|--------2----2--2-2-2------2-----2------2----0---0--0--0-0---0--0--0-0--|
A#|--------3----3--3-3-3------2-----2------2----0---0--0--0-0---0--0--0-0--|
F#|--------4----4--4-4-4------2-----2------2--------1--1--1-1---1--1--1-1--|
C#|--------4----4--4-4-4------2--2--2---------------2--2--2-2---2--2--2-2--|
G#|--------2--2-2-------------2--2--2---------------2-----2-2---2-----2-2--|
D#|-------------------------------------------------0-----0-0---0-----0-0--|

   With you
d#|--------2----2--2-2-2------2-----2------2----0---0--0--0-0---0--0--0-0--|
A#|--------3----3--3-3-3------2-----2------2----0---0--0--0-0---0--0--0-0--|
F#|--------4----4--4-4-4------2-----2------2--------1--1--1-1---1--1--1-1--|
C#|--------4----4--4-4-4------2--2--2---------------2--2--2-2---2--2--2-2--|
G#|--------2--2-2-------------2--2--2---------------2-----2-2---2-----2-2--|
D#|-------------------------------------------------0-----0-0---0-----0-0--|


Verse 2:

      What a wicked game to play,     to make me feel this way.
d#|-2------------------2------------0-----------------------------|
A#|-3------------------2-----b3-----0-----------------------------|
F#|-4------------------2------------1-----------------------------|
C#|-4------------------2------------2-----------------------------|
G#|-2------------------2------------2-----------------------------|
D#|---------------------------------0-----------------------------|

      What a wicked thing to do,       to let me dream of you.
d#|-2---------------2---------------0-----------------------------|
A#|-3---------------2--------b3-----0-----------------------------|
F#|-4---------------2---------------1-----------------------------|
C#|-4---------------2---------------2-----------------------------|
G#|-2---------------2---------------2-----------------------------|
D#|---------------------------------0-----------------------------|

         What a wicked   thing to say,         you never felt that way.
d#|-2----2----2-2-2------2-----2------2--0---0--0--0-0---0--0--0-0-----|
A#|-3----3----3-3-3------2-----2--b3--2--0---0--0--0-0---0--0--0-0-----|
F#|-4----4----4-4-4------2-----2------2------1--1--1-1---1--1--1-1-----|
C#|-4----4----4-4-4------2--2--2-------------2--2--2-2---2--2--2-2-----|
G#|-2--2-2---------------2--2--2-------------2-----2-2---2-----2-2-----|
D#|------------------------------------------0-----0-0---0-----0-0-----|

        What a wicked    thing to do,          to make me dream of you and,
d#|-2----2----2-2-2------2-----2------2--0---0--0--0--0----0---0---0--0---|
A#|-3----3----3-3-3------2-----2--b3--2--0---0--0--0--0----0---0---0--0---|
F#|-4----4----4-4-4------2-----2------2------1--1--1--1----1---1---1--1---|
C#|-4----4----4-4-4------2--2--2-------------2--2--2--2----2---2---2--2---|
G#|-2--2-2---------------2--2--2-------------2-----2--2----2-------2--2---|
D#|------------------------------------------0-----0--0----0-------0--0---|


Chorus:

   No, I-------------     don't want to fall in love.
d#|----2----2--2-2-2------0-----0------0----0---0--0--0-0---0--0--0-0--|
A#|----3----3--3-3-3------2-----2------2----0---0--0--0-0---0--0--0-0--|
F#|----4----4--4-4-4------2-----2------2--------1--1--1-1---1--1--1-1--|
C#|----4----4--4-4-4------2--2--2---------------2--2--2-2---2--2--2-2--|
G#|----2--2-2-------------0--0--0---------------2-----2-2---2-----2-2--|
D#|---------------------------------------------0-----0-0---0-----0-0--|

   No, I-------------     don't want to fall in love.
d#|----2----2--2-2-2------0-----0------0----0---0--0--0-0---0--0--0-0--|
A#|----3----3--3-3-3------2-----2------2----0---0--0--0-0---0--0--0-0--|
F#|----4----4--4-4-4------2-----2------2--------1--1--1-1---1--1--1-1--|
C#|----4----4--4-4-4------2--2--2---------------2--2--2-2---2--2--2-2--|
G#|----2--2-2-------------0--0--0---------------2-----2-2---2-----2-2--|
D#|---------------------------------------------0-----0-0---0-----0-0--|

   With you
d#|-----------2-----2-----2----0-----0-----0--------0---------------|
A#|-------------3-----3----------2-----2------------0---------------|
F#|---------------4----------------2--------------1-----------------|
C#|---------------------4----------------2------2-----------2---1~--|
G#|---------2----------------0----------------2---------2-4---4-----|
D#|-------------------------------------------0---------------------|

   With you
d#|-----------2-----2-----2----0-----0-----0--------0---------------|
A#|-------------3-----3----------2-----2------------0---------------|
F#|---------------4----------------2--------------1-----------------|
C#|---------------------4----------------2------2-----------2---1~--|
G#|---------2----------------0----------------2---------2-4---4-----|
D#|-------------------------------------------0---------------------|


Bridge:

d#|-----------2-----2-----2----0-----0-----0--------0--------------------|
A#|-------------3-----3----------2-----2------------0--------------------|
F#|---------------4----------------2--------------1-----1/2--4-2-2--4~---|
C#|---------------------4----------------2------2------------------------|
G#|---------2----------------0----------------2--------------------------|
D#|-------------------------------------------0--------------------------|

d#|-----------2-----2-----2----0-----0-----0--------0---------------|
A#|-------------3-----3----------2-----2------------0---------------|
F#|---------------4----------------2--------------1-----------------|
C#|---------------------4----------------2------2-----------2---1~--|
G#|---------2----------------0----------------2---------2-4---4-----|
D#|-------------------------------------------0---------------------|


Verse 1:

    The world was on fire and no one could save me but you.
d#|-2-------------------------2------------------------0----0-0-0--0----0--|
A#|-3-------------------------2------------------------0----0-0-0--0----0--|
F#|-4-------------------------2------------------------1----1-1-1--1----1--|
C#|-4-------------------------2------------------------2--2-2---2--2--2-2--|
G#|-2-------------------------2------------------------2--2-2---2--2--2-2--|
D#|----------------------------------------------------0--0-0---0--0--0-0--|

d#|-----------------------|
A#|--7/8-8-7-5---5-7/8\7--|
F#|------------7----------|
C#|-----------------------|
G#|-----------------------|
D#|-----------------------|

    It's strange what desire will make foolish people do.
d#|-2-----------------------------2-------------------0----0-0-0--0----0--|
A#|-3-----------------------------2-------------------0----0-0-0--0----0--|
F#|-4-----------------------------2-------------------1----1-1-1--1----1--|
C#|-4-----------------------------2-------------------2--2-2---2--2--2-2--|
G#|-2-----------------------------2-------------------2--2-2---2--2--2-2--|
D#|---------------------------------------------------0--0-0---0--0--0-0--|

    I never dreamed that I'd meet somebody like you...
d#|-2----2----2-2-2------2-----2------2----0---0--0--0-0---0--0--0-0--|
A#|-3----3----3-3-3------2-----2--b3--2----0---0--0--0-0---0--0--0-0--|
F#|-4----4----4-4-4------2-----2------2--------1--1--1-1---1--1--1-1--|
C#|-4----4----4-4-4------2--2--2---------------2--2--2-2---2--2--2-2--|
G#|-2--2-2---------------2--2--2---------------2-----2-2---2-----2-2--|
D#|--------------------------------------------0-----0-0---0-----0-0--|

   And I never dreamed that I   knew somebody like you.
d#|----2----2----2-2-2------2-----2------2----0---0--0--0-0---0--0--0-0--|
A#|----3----3----3-3-3------2-----2--b3--2----0---0--0--0-0---0--0--0-0--|
F#|----4----4----4-4-4------2-----2------2--------1--1--1-1---1--1--1-1--|
C#|----4----4----4-4-4------2--2--2---------------2--2--2-2---2--2--2-2--|
G#|----2--2-2---------------2--2--2---------------2-----2-2---2-----2-2--|
D#|-----------------------------------------------0-----0-0---0-----0-0--|


Chorus:

   No, I-------------     don't want to fall in love.
d#|----2----2--2-2-2------0-----0------0----0---0--0--0-0---0--0--0-0--|
A#|----3----3--3-3-3------2-----2------2----0---0--0--0-0---0--0--0-0--|
F#|----4----4--4-4-4------2-----2------2--------1--1--1-1---1--1--1-1--|
C#|----4----4--4-4-4------2--2--2---------------2--2--2-2---2--2--2-2--|
G#|----2--2-2-------------0--0--0---------------2-----2-2---2-----2-2--|
D#|---------------------------------------------0-----0-0---0-----0-0--|

   No, I-------------     don't want to fall in love.
d#|----2----2--2-2-2------0-----0------0----0---0--0--0-0---0--0--0-0--|
A#|----3----3--3-3-3------2-----2------2----0---0--0--0-0---0--0--0-0--|
F#|----4----4--4-4-4------2-----2------2--------1--1--1-1---1--1--1-1--|
C#|----4----4--4-4-4------2--2--2---------------2--2--2-2---2--2--2-2--|
G#|----2--2-2-------------0--0--0---------------2-----2-2---2-----2-2--|
D#|---------------------------------------------0-----0-0---0-----0-0--|

   No, I---------
d#|-----------2-----2-----2----0-----0-----0--------0---------------|
A#|-------------3-----3----------2-----2------------0---------------|
F#|---------------4----------------2--------------1-----------------|
C#|---------------------4----------------2------2-----------2---1~--|
G#|---------2----------------0----------------2---------2-4---4-----|
D#|-------------------------------------------0---------------------|

   No, I---------
d#|-----------2-----2-----2----0-----0-----0--------0---------------|
A#|-------------3-----3----------2-----2------------0---------------|
F#|---------------4----------------2--------------1-----------------|
C#|---------------------4----------------2------2-----------2---1~--|
G#|---------2----------------0----------------2---------2-4---4-----|
D#|-------------------------------------------0---------------------|


[Bm] Nobody loves no one.
comments
print report bad tab
7 comments total. Showing first comments.
+1 reply
Big1665 wrote on January 2 2011, 04:05 pm

Thank you really much. Finally someone who got the intro right/almost right.

0 reply
SehbRoot wrote on January 24 2011, 05:58 pm

Thank you for rate, man ;D keep on rocking \m/

0 reply
TenCrazyBadgers wrote on July 23 2012, 04:05 pm

Sorry, is this down half a step? Great tab though man!

I want to post or [tab]
guest
You may want to rate the tab now too:
select rating
Please do not post tabs as comments. Select "correction" instead!