Oops, an error
Loading. Please wait.

Zzyzx Rd bass

version 1
version 1

Whole song

Interactive

5,876 views 3 this week
3 commentsread comments
1 2 3 4 5
x 3
add to favorites
×
Save as Personal and add changes to this tab that will be seen only by you. Learn more ›
×
You can save this tab as Personal to edit and correct it or add notes. All changes will be seen only by you. Learn more »
launch autoscroll
font size
0
reset
guitar tuner
edit
Autoscroll
slow
fast
+/-
esc
set tempo
stop
Tabbed By:  bassmasta20
Tuning:  standard (eadg)

bass doesn't come in until 1:34
G|----------------------------------------|
D|----------------------------------------|
A|2~---22~--------------------------------|
E|----------4~---44~--0~---00~--2~---22~--|

cont.
----------------------------------------|
----------------------------------------|
2~---22~--------------------------------|
----------4~---44~--0~---00~--2~---2x---|

verse 2
 |------this part played 3 times----------------------------------------------|
G|----------------------------------|-----------------------------------------|
D|----------------------------------|-----------------------------------------|
A|2~-------------------------2~-----|---2~--------------------------2222h4/6|-|
E|---------4~-------0~------------2~|------------4~-------0~---2~-------------|

chorus 2
G|----------------------------------------------|
D|----------------------------------------------|
A|-------------------------2~---22-2~-----------|
E|4~---44-44~--0~---00-0~--------------2~-------|

chorus 2 cont.
|-----------------------------------|
|-----------------------------------|
|-------------------------2~--------|
|4~---44-44~--0~---00-0~-------2~---|


guitar solo
G|-------------------------------------------|
D|-------------------------------------------|
A|2222222~-----------------------------------|
E|----------4444-44-4~--0000-00-0~--2222222~-|

solo cont.
---------------------------------------|
---------------------------------------|
222222/4\------------------------------|
----------444444/6\-2~--------0000000~-|

part when he starts to sing "oo yeah", 3:31
 |------this part is played 6 times--------|
G|-----------------------------------------|
D|-----------------------------------------|
A|-6~--6~----6~--6~----2~--2~----4~--4~----|
E|-----------------------------------------|

--------------------------------------------------|
--------------------------------------------------|
6~---6~-----6~---6~-----2~---2~-----4~---4~-----6~|
--------------------------------------------------|

This is the order in which the song is played.  There is no bass in the intro, verse 1, 
chorus 1, but if you get bored of just sitting there playing nothing, than you could 
this.

intro, played 2 times
G|--------------------------------------|
D|--------------------------------------|
A|2~------------------------------------|
E|---------4~--------0~--------2~-------|

verse 1
 |------this part played 3 times--------|
G|--------------------------------------|
D|--------------------------------------|
A|2~-------------------------2~---------|
E|---------4~-------0~------------2~----|

verse 1 cont.
--------------------------------------|
--------------------------------------|
2~---------------------------2~-------|
---------4~--------0~---2~------------|

chorus 1
G|------------------------------------|----------------------------|
D|------------------------------------|----------------------------|
A|------------------2~----------------|------------------2~--------|
E|4~-------0~----------------2~-------|4~-------0~-----------------|

| /  slide up
| \  slide down
| h  hammer-on
| p  pull-off
| ~  vibrato
| +  harmonic
| x  Mute note
=============================================================================

            
            
Suggest correction
Creating personal tab
Creating personal tab
You can edit any tab online and save it as your Personal.

You can edit, replace or remove any tab part or add personal notes – all changes will be seen only by you.

Personal tabs can be accessed anytime from any device, even offline.
Learn more »
Give kudos to tab author, rate the tab!
1 2 3 4 5
comments
print report bad tab
3 comments total.
0 reply
Satan Man 1,286 Oct 28, 2006 05:36 AM

great tab

0 reply
bassmasta20 144 Oct 28, 2006 11:45 PM

Hey this is bassmasta20. I'm the guy who tabbed this song, but the reason it doesn't display my name is because I wasn't signed up with UG until after I submitted this tab. Anyway, thanks for the comments. I just found out that this song might be tuned 1/2 a step down. I'm not sure because I'm still trying to train my ears to pick up different tones and what not. Anyway, thanks for the comments and feel free to correct any of my mistakes and in case you're wandering what that line is after the 6 in verse 2, don't worry about, it's just a type-o and only the 1st part of verse 2 is played 3x. Anyway, thanks again.

0 reply
bassmasta20 144 Oct 29, 2006 08:46 PM

Hey this is bassmasta20 again. Actually the line after the 6 in the 2nd part of verse 2 is supposed to be this, \. You're supposed to slide up to the 6th fret and then back down. Sorry for the mistake.

guest
Wanna post a correction for this tab? Suggest correction