Oops, an error
Loading. Please wait.

Zzyzx Rd Tab

version 1
version 1

Whole song

Interactive

14,888 views 18 this week
8 commentsread comments
1 2 3 4 5
x 4
add to favorites
launch autoscroll
font size
0
reset
how to read this tab
guitar tuner
Autoscroll
slow
fast
+/-
esc
set tempo
stop
Help us to improve Ultimate-Guitar.com Take our survey!
×
Difficulty
Tuning
intermediate
C G C F A D
Song: Zzyzx Rd.
Artist: Stone Sour
Album: Come What(ever) May
Tuning: Drop C

This should give a very good idea of the timing of it but you should listen to the song 
all the times for vibratos and things like that. It’s a simple but great sounding solo. 
more about making the bends and vibratos very smooth sounding.

b^---bend to
~ ---vibrato
h ---hammer on
p ---pull-off
pm---palm mute
\ ---slide down to
/ ---slide up to

d|-------------------------------------------------------------------------|
A|--16b^19---16p14-14p13-13-14-14~~~---------------------------------------|
F|------------------------------------------13h15-13~~-------13h15~~8--6--5|
C|-------------------------------------13h15-----------13h15---------------|
G|-------------------------------------------------------------------------|
C|-------------------------------------------------------------------------|


d|-------------------------------------------------------------------------|
A|-------------------------------------------------------------------------|
F|-------------------------------------------------------------------------|
C|-----------10----------11----------13~~11-10h11p10h11p10h11p10\8\3-/8~~~-|
G|--11-11-11----11-11-11----11-11-11---------------------------------------|
C|-------------------------------------------------------------------------|
    pm pm pm    pm pm pm    pm pm pm


d|---------------16^--16^--14-13-------------------------------------------|
A|-------------------------------16-14-13----------------------------------|
F|--/15-13~~-13\--------------------------15-13----------------------------|
C|----------------------------------------------16-15~~~~------------------|
G|-------------------------------------------------------------------------|
C|-------------------------------------------------------------------------|
Suggest correction
comments
print report bad tab
8 comments total. Showing first comments.
+1 reply
CrosseGod18 464 Sep 21, 2006 08:55 AM

not bad. There is one part of the begin that is a little off. Heres how I play it.

d|------------------------------------------------------------------|
A|--16b^19---16p14-14p13-13-14-14~~~--------------------------------|
F|------------------------------------------13h15-13~~-------13h15--|
C|-------------------------------------13h15-----------13h15--------|
G|------------------------------------------------------------------|
C|------------------------------------------------------------------|

d|------------------------------------------------------------------|
A|------------------------------------------------------------------|
F|--13~~------------------------------------------------------------|
C|-------13---11---10-----------------------------------------------|
G|------------------------------------------------------------------|
C|------------------------------------------------------------------|

You just had a couple of notes mixed up I give you 4 anyway.

-2 reply
Kreuger 792 Sep 23, 2006 10:08 AM

the song is in standard

+1 reply
LordThon 82 Oct 03, 2006 10:57 AM

The song is most likely flat.
Given the tuning of "Bother" (written by Taylor, just like "Zzyzx Rd."), and the tuning of both "Through Glass" and "sillyworld", it would make sense that "Zzyzx Rd" is flat.

guest
You may want to rate the tab now too:
select rating
Wanna post a correction for this tab? Suggest correction