Oops, an error
Loading. Please wait.

Zzyzx Rd Tab

version 2
version 2

Whole song

Interactive

25,701 views 15 this week
6 commentsread comments
1 2 3 4 5
excellent!
x 16
add to favorites
launch autoscroll
font size
0
reset
how to read this tab
guitar tuner
Tab Pro tools
  • play this tab
  • loop segment
  • change instrument
  • show fretboard
  • metronome
×
Best way to learn
"Zzyzx Rd"
Autoscroll
slow
fast
+/-
esc
set tempo
stop
Contributor
Difficulty
novice
-------------------------------------------------------------------------------
			     STONE SOUR - Zzyzx Rd.
-------------------------------------------------------------------------------
Tabbed by: Steve (Skatersic666)


Tuning: 1/2 Step Down (Eb Ab Db Gb Bb eb)


THIS IS JUST SOLO ONE.

Listen to the song for timing

   N.C
e|---------------------------------------------------------------------------|
B|-15b(17)--16p14--14\13-12-13~~~~~------------------------------------------|
G|------------------------------------------12h14--12~~~~--------12h14--12~~-|
D|------------------------------------12h14----------------12h14-------------|
A|---------------------------------------------------------------------------|
E|---------------------------------------------------------------------------|


e|---------------------------------------------------------------------------|
B|---------------------------------------------------------------------------|
G|---------------------------------------------------------------------------|
D|-/12--10--9--------------9-------------10---------------12----10-----------|
A|----------------10-10-10---10-10-10-10------10-10-10-10--------------------|
E|---------------------------------------------------------------------------|
		  P.M____|   P.M_______|      P.M_______|


e|---------------------------------------------------15b(17)r--15b(17)r------|
B|---------------------------------------------------------------------------|
G|---------------------------------/14---12~~~~-\----------------------------|
D|-9h10p9h10p9h10p9----------------------------------------------------------|
A|-------------------8/12~~~-------------------------------------------------|
E|---------------------------------------------------------------------------|


e|--13-12--------------------------------------------------------------------|
B|--------15-14-12-----------------------------------------------------------|
G|-----------------14-13~~~~-------------------------------------------------|
D|---------------------------------------------------------------------------|
A|---------------------------------------------------------------------------|
E|---------------------------------------------------------------------------|



THEN INTO SOLO TWO WHICH I HAVEN'T WORKED OUT YET


| /  slide up
| \  slide down
| h  hammer-on
| p  pull-off
| ~  vibrato
| +  harmonic
| x  Mute note
===============================================================================
comments
print report bad tab
6 comments total. Showing first comments.
+1 reply
oh... THAT guy wrote on November 12 2006, 09:22 am

i like you!

0 reply
stewie123 wrote on December 9 2006, 11:10 am

Great Tab, the first solo that I learned and can play
fluently

0 reply
Feaksy wrote on September 17 2007, 09:40 am

great tab spot on!

I want to post or [tab]
guest
You may want to rate the tab now too:
select rating
Please do not post tabs as comments. Select "correction" instead!