Oops, an error
Loading. Please wait.

Zzyzx Rd Tab

version 1
version 1

Whole song

Interactive

27,218 views 15 this week
1 commentread comment
1 2 3 4 5
excellent!
x 8
add to favorites
launch autoscroll
font size
0
reset
how to read this tab
guitar tuner
Tab Pro tools
  • play this tab
  • loop segment
  • change instrument
  • show fretboard
  • metronome
×
Best way to learn
"Zzyzx Rd"
Autoscroll
slow
fast
+/-
esc
set tempo
stop
Contributor
Difficulty
novice
Tuning: Half step down Eb Ab Db Gb Bb eb

Tabbed by: MrBryan15

Email: B_R_Y15@hotmail.co.uk




Basic strumming throughout verse.
|----------------------------3---3-3-3---|
|-1-0-1----1-0-1----1-0-1----3---3-3-3---|
|-0-0-0--0-2-2-2--0-2-2-2--0-0---0-0-0-0-|
|-2-2-2--0-2-2-2--0-3-3-3--0-0-0-------0-|
|-3-3-3--0-0-0-0--0-0-0-0--0-2-2-------0-|
|----------------------------3-3---------|

Chords change after 1:10(approx)
|-----------------------------------------------------|
|------1-1-1---------1-1-1---------1-1-1---------1----|
|------2-2-2-/5-5-5--0-0-0--0-0-0--2-2-2-/5-5-5--0--0-|
|------2-2-2--3-3-3--2-2-2--0-0-0--2-2-2--3-3-3--2--0-|
|--3-2-0-0-0--3-3-3--3-3-3--2-2-2--0-0-0--3-3-3--3--2-|
|--------------------3-3-3--3-3-3----------------3--3-|

thats basically the chords for the whole song. 
just add some extra lead guitar over the rhythm and should sound good 



Solo 1. (figure out timing yourself)
|---------------------------------------------------------------------|
|-15b-Slow bend--15b(17)15-13p12-12-13--------------------------------|
|-------------------------------------------12h14-12~-------12h14-12~-|
|--------------------------------------12h14-----------12h14----------|
|---------------------------------------------------------------------|
|---------------------------------------------------------------------|

|--------------------------------------------------------------------------|
|--------------------------------------------------------------------------|
|--------------------------------------------------------------------------|
|-12~-10~-9~---------9---------10----------12-10-9h10-9h10-9h10-9h10-------|
|------------10-10-10---10-10-10----10-10-10-------------------------7/12~-|
|--------------------------------------------------------------------------|
             .  .  .    .  .  .     .  .  .

|---------------15b(17)-15b(17)--15-13-12----12-----------|
|-----------------------------------------15----15--------|
|-12b(14)-12~\-------------------------------------12-13~-|
|---------------------------------------------------------|
|---------------------------------------------------------|
|---------------------------------------------------------|

Havent done 2nd solo as its quite hard to hear and hard to tab out.


| /  slide up
| \  slide down
| h  hammer-on
| p  pull-off
| ~  vibrato
| .  Mute note
===============================================================================
comments
print report bad tab
1 comment total.
0 reply
RoadTrain wrote on January 4 2013, 10:52 pm

This is basically how Corey plays it live.
Perfect.

I want to post or [tab]
guest
You may want to rate the tab now too:
select rating
Please do not post tabs as comments. Select "correction" instead!