Oops, an error
Loading. Please wait.

Andy Warhol bass

1,428 views 1 this week
no commentswrite comment
1 2 3 4 5
3 more votes to show rating
add to favorites
×
Save as Personal and add changes to this tab that will be seen only by you. Learn more ›
×
You can save this tab as Personal to edit and correct it or add notes. All changes will be seen only by you. Learn more »
launch autoscroll
font size
0
reset
guitar tuner
edit
Autoscroll
slow
fast
+/-
esc
set tempo
stop
Author
Difficulty
Stone Temple Pilots – Andy Warhol (Bass)

Intro:
G---------------------------------|
D------------245------------------|
A----------02---3-33-33-320-------|
E-0-00-0023----------------32-0---|    x2

Verse:
G----------------------------------------------|
D--------------2-------------------------------|
A------------02--------------------------------|
E-0-00-00-0-3----00-00-0-5-55-55-557-8-7-5\0---|

Bridge:
G----------------------------------|
D----------------------------------|
A----------5-5-52-22-22-5-5-5------|
E-0-00-00-0-------------------0----|

Verse

Bridge2:
G---------------------------------|
D------------245------------------|
A----------02---3-33-33~3-3-3-----|
E-0-00-0023-----------------------|

Chorus:
G-----------------------------------------|
D-----------------------------------------|
A---10---------10------10---------10------|
E-10---5-0-5-0---10--10---5-0-5-0---10-12-|

Intro x2

Verse

Intro

Verse

Bridge2

Chrous x2

Bass Solo:
G-------------------------------------------------|
D----------------12-12----------------------------|
A-----------12-14-----14-1413-1312--12------------|
E-12-1212-12----------------------15—15-12-15^-12~|

G-------------------------------------------------------------------|
D----------------------------12-12----------------------------------|
A-----------------------12-14-----141312----------------------------|
E-12-10-7-5-7-7/10-12-12----------------15-12-10-121212121212121212~|

Chorus

Written by Fritz Kopischke
http://profile.ultimate-guitar.com/pommes_fritz/
http://artists.ultimate-guitar.com/strayed_pass/

Dont't know if it's 100% correct, maybe 95% but it was work, I will never write a bass tab 
again!^^

            
            
Suggest correction
Creating personal tab
Creating personal tab
You can edit any tab online and save it as your Personal.

You can edit, replace or remove any tab part or add personal notes – all changes will be seen only by you.

Personal tabs can be accessed anytime from any device, even offline.
Learn more »
Give kudos to tab author, rate the tab!
1 2 3 4 5
comments
print report bad tab
guest
You may want to rate the tab now too:
select rating
Wanna post a correction for this tab? Suggest correction