Oops, an error
Loading. Please wait.

Army Ants intro tab

version 1
version 1

Intro

Whole song

Interactive

1,630 views 3 this week
no commentswrite comment
1 2 3 4 5
x 5
add to favorites
×
Save as Personal and add changes to this tab that will be seen only by you. Learn more ›
×
You can save this tab as Personal to edit and correct it or add notes. All changes will be seen only by you. Learn more »
launch autoscroll
font size
0
reset
how to read this tab
guitar tuner
edit
Autoscroll
slow
fast
+/-
esc
set tempo
stop
Author
Army Ants
Stone Temple Pilots
Purple
Standard Tuning (EADGBE)

I have been working on a way to play the intro to Army Ants for a while now, and I am
sure this sounds 100% right. I was watching Dean play it live with chords on a 12 string
it sounded great, so I just transcribed what I heard. There is already a great version 
the rest of this song on the site, so go check that out if you want more.

INTRO (Chord spacing is not accurate, just listen to the song and its easy)
e|-5-----------------------------------------------------------------|
B|-5-5-5-5-5-5-5-5-5-5-5-5-5-5-5-5-5-5-5-5-5-5-5-7-7-7-7-7-7-7-7-7-7-|
G|-7-7-7-7-7-7-7-7-7-7-7-7-7-7-7-7-7-7-7-7-7-7-7-5-5-5-5-5-4-4-4-4-4-|
D|-7-7-7-7-7-7-7-7-7-7-7-7-6-6-6-6-6-6-6-6-6-6-6-0-0-0-0-0-0-0-0-0-0-|
A|-5-5-5-5-5-5-5-5-5-5-5-5-5-5-5-5-5-5-5-5-5-5-5-0-0-0-0-0-0-0-0-0-0-|
E|- -----------------------------------------------------------------|

e|-------------------------|
B|-5-5-5-5-5-5-3-4-4-4-4-4-|
G|-3-3-3-3-3-3-3-3-3-3-3-3-|
D|-0-0-0-0-0-0-0-0-0-0-0-0-|
A|-0-0-0-0-0-0-0-0-0-0-0-0-|
E|-------------------------|

(Play two times and end with the first chord sustained)

These are the chords used, in case this is an easier way for you to see them. I do not
my music theory very well, so I do not know the names.

e|-5-|---|---|---|---|---|---|---|
B|-5-|-5-|-5-|-7-|-7-|-5-|-3-|-4-|
G|-7-|-7-|-7-|-5-|-4-|-3-|-3-|-3-|
D|-7-|-7-|-6-|-0-|-0-|-0-|-0-|-0-|
A|-5-|-5-|-5-|-0-|-0-|-0-|-0-|-0-|
E|---|---|---|---|---|---|---|---|

            
            
Suggest correction
Creating personal tab
Creating personal tab
You can edit any tab online and save it as your Personal.

You can edit, replace or remove any tab part or add personal notes – all changes will be seen only by you.

Personal tabs can be accessed anytime from any device, even offline.
Learn more »
comments
print report bad tab
guest
You may want to rate the tab now too:
select rating
Wanna post a correction for this tab? Suggest correction