Oops, an error
Loading. Please wait.

Between The Lines Tab

version 1
version 1

Whole song

Interactive

9,533 views 3 this week
no commentswrite comment
1 2 3 4 5
accurate
x 3
add to favorites
launch autoscroll
font size
0
reset
how to read this tab
guitar tuner
Autoscroll
slow
fast
+/-
esc
set tempo
stop
Help us to improve Ultimate-Guitar.com Take our survey!
×
Author
Saverain 3,612
#----------------------------------PLEASE NOTE--------------------------------#
#This file is the author's own work and represents their interpretation of the#
#song. You may only use this file for private study, scholarship, or research.#
#-----------------------------------------------------------------------------#
#-- File created with Instab - http://www.pconline.com/~smcarey/instab.html --#
#-----------------------------------------------------------------------------#

Author/Artist: Stone Temple Pilots
Title: Between The Lines

m mute
Arpeggio strum throughout.


Tuning (eb A D G B E)
Live Standard Tuning
Key: (F# + A)


----|----------------|--|
----|----------------|--|
----|----------------|--|
----|-5-5-5-5-5-5-5--|2x|
----|-3-3-0-3-3-0-3--|--|
----|----------------|--|
  

  Intro



----|---------------|
----|---------------|
----|---------------|
----|---------------|
----|---------------|
----|-11--11--2-4-2-|
      Bass..

  Verse



----|----------------------5b-5b--|--|-----------------|
----|----------------------3b-3b--|--|-----------------|
----|-----------------------------|--|-----------------|
----|-5-5-5-5-5-5-5-5-------------|--|-5-5-5-5-5-5-5-5-|
----|-3-3-3-0-3-3-3-3-5-5---------|--|-3-3-3-0-3-3-3-3-|
----|-----------------6-6---------|--|-----------------|
   

  Chorus                    m




----|----------------------|
----|----------------------|
----|-7--7--7-7--------7-7-|
----|-7--7--5-5--10-10-5-5-|
----|------------8--8------|
----|----------------------|
    

  Riff 1 



----|----------------------------|---------------------------------|--|
----|----------------------------|---------------------------------|--|
----|----x-x-9--9--------x-x-7-7-|--------x-x-9--9--------x-x-7-7--|--|
----|-7\-x-x-7--7-5-5--5-x-x-5-5-|-7-7--7-x-x-7--7-5-5--5-x-x-5-5--|--|
----|-7\----------3-3--3---------|-7-7--7----------3-3--3----------|--|
----|----------------------------|---------------------------------|--|
    


  Interlude
Suggest correction new What's this?
You can suggest a correction to this tab. Community and Mods will review your correction and vote to approve or reject it.
comments
We did not receive enough feedback on this tab! Please rate:
print report bad tab
1 2 3 4 5
guest
You may want to rate the tab now too:
select rating
Please do not post tabs as comments. Select "correction" instead!