Oops, an error
Loading. Please wait.

Bi-Polar Bear tab

version 1
version 1

Whole song

Interactive

3,164 views 12 this week
3 commentsread comments
1 2 3 4 5
x 5
add to favorites
×
Save as Personal and add changes to this tab that will be seen only by you. Learn more ›
×
You can save this tab as Personal to edit and correct it or add notes. All changes will be seen only by you. Learn more »
launch autoscroll
font size
0
reset
how to read this tab
guitar tuner
edit
Autoscroll
slow
fast
+/-
esc
set tempo
stop
Author
#----------------------------------PLEASE NOTE--------------------------------#
#This file is the author's own work and represents their interpretation of the#
#song. You may only use this file for private study, scholarship, or research.#
#-----------------------------------------------------------------------------#
#-- File created with Instab - http://www.pconline.com/~smcarey/instab.html --#
#-----------------------------------------------------------------------------#

Author/Artist: Stone Temple Pilots
Title: Bi-Polar Bear

/ slide up
\ slide down
h ahmmer on
p pull off
b bend
r release bend
A arpeggio 
U Arpeggio up
P pull off


Tuning (eb A D G B E), (eb, D) Down ~ 10%
Live Standard Tuning
Key: (E + A) or (D + C#)


----|---------------------------------------------------------|
----|---------------------------------------------------------|
----|-----4---4---x-4-----4---4---4-----------------------x-x-|
----|-----7---7---x-7-----7---7---7-----------------------x-x-|
----|-----5---5-----5-----5---5---5---7-7-7-\3-----3--3-3-----|
----|-4-----4---4-------4---4---4---4-6-7-6-\2-----1--2-1-----|
  

   G2 Verse Arpeggios                          




----|------|-----|
----|------|-----|
----|------|-6---|
----|-11---|-7---|
----|-11---|-5---|
----|------|-----|  
  

  Verse End 1 End 2




----|-----------------------------------------------------------------------|
----|-----------------------------------------------------------------------|
----|-7--7--7-7-7/9--9-9-9/11-11-11-11/-13-13-13-13--13-13--13-13--13-13-13-|
----|-7--7--7-7-7/9--9-9-9/11-11-11-11/-x--x--x--x---x--x---x--x---x--x--x--|
----|-5--5--5-5-5/7--7-7-7/9--9--9--9-/-11-11-11-11--11-11--11-11--11-11-11-|
----|-----------------------------------------------------------------------|
  

  Verse End 3




----|--------------------------|--|-------2---0---|-------------------2---0---|
----|--------------------------|--|---------3---1-|---------------------3---1-|
----|-7-7/9---9/11--9\7--7-7---|--|---------------|---------------------------|
----|-x-x-----x-----x----x-x---|--|---------------|---------------------------|
----|-5-5/7---7/9---7\5--5-5---|--|---------------|----------3-3-5-5----------|
----|--------------------------|--|-11-11---------|-11h13-13------------------|
   

  G1 Chorus                         Bass            Bass....





----|-------------------------|-----------|
----|-------------------------|-7----12---|
----|-11/14--11-9-/10-9--7-7--|-7---------|
----|-x------x--x-----x--x-x--|-7---------|
----|-9-/12--9--7/9---7--5-5--|-5----10---|
----|-------------------------|-6----9----|
  

  Chorus End                    






--|---------------------------------------------------------------------------|
--|---------------------------------------------------------------------------|
--|-14b16vvv-14p12-11-12/14------9-9/11\9vvv-7--9--9b10r9-----7/9-4/5vv-7-----|
--|--------------------------12---------------------------10---------------10-|
--|---------------------------------------------------------------------------|
--|---------------------------------------------------------------------------|
  

  Solo Live Version Standard Tuning                                                     



------------------------------------------------------------------------------|
--------------------------------------10------10----10--10/12\10vv------------|
--2vv--------------------------------------------11-----9-/11\9-vv------------|
------2/4---0h2-4-5-7-4-4h5-7-4-5/7/9------12---------------------------------|
-------------------------------------------------------------------12-10-9vv--|
------------------------------------------------------------------------------|



------------------------------------------------------------------------------|
--------15-17-17b18r17-15-15/17--13--15--13-10vv--13b115vv----15p13-12p10-----|
-14/16--------------------------------------------------------------------12--|
------------------------------------------------------------------------------|
------------------------------------------------------------------------------|
------------------------------------------------------------------------------|



------------------------------------------------------------------------------|
-10p9-8-----------------------------------------------------13-15-18br-18-15--|
--------10p7-12-10b11r10/---14b15r14--15/--14b15r14--14--14-------------------|
------------------------------------------------------------------------------|
------------------------------------------------------------------------------|
------------------------------------------------------------------------------|



-----|
-18/-|
-----|
-----|
-----|
-----|







----|------------------------------------------------------------------------|
----|-10\7----5/7\5vv-----------------------5/7\5---10\7-7---5/7\5-----------|
----|-------------------7/9-7------7---7/9--------------------------7-7/9-7--|
----|-------------------------9\7--------------------------------------------|
----|------------------------------------------------------------------------|
----|------------------------------------------------------------------------|
  

   G3 Interlude Live Version Standard Tuning



------------------------------------------------------------------------------|
-------------5/7\5-----------------10\7-7---5/7\5-----------------------5/7\5-|
------7--7/9--------7-7/9-7-------------------------7-7/9-7------7---7/9------|
-9\7-------------------------9\7----------------------------9\7---------------|
------------------------------------------------------------------------------|
------------------------------------------------------------------------------|




-----------------|
-----------------|
---7-7/9-7-------|
-----------9\7---|
-----------------|
-----------------|






----|------------------------------------------------------------|
----|---------------------------10/12\10--12---------------------|
----|-------------------------------------------------------19---|
----|-5-----------------------------------------------------19---|
----|-3-3--3--2---3/5---3/5\3---12/14\12--10-15h17p15h17p15-17---|
----|-------------2/4---2/4\2-12----------9----------------------|

 
  G2 Outro Arr for one guitar
Suggest correction
Creating personal tab
Creating personal tab
You can edit any tab online and save it as your Personal.

You can edit, replace or remove any tab part or add personal notes – all changes will be seen only by you.

Personal tabs can be accessed anytime from any device, even offline.
Learn more »
comments
print report bad tab
3 comments total.
0 reply
savetheBS 10 Jun 08, 2006 01:05 AM

impossible to play chords where you have to stretch across 5 frets? no thanks

-1 reply
black_roses_jmt 10 Jul 19, 2007 09:04 AM

^^^omfg ur so retarded, didn't u notice, the chords had open strings in them, so IT DOESN'T TAKE 5 FINGERS FRICKIN RETARDED SON OF A BITCH

0 reply
k2bandit7 10 Apr 15, 2009 11:32 AM

nice tab guy. black rose do you drive a big truck and have a 2 inch dick whats your deal?

guest
You may want to rate the tab now too:
select rating
Wanna post a correction for this tab? Suggest correction