Oops, an error
Loading. Please wait.

Black Heart Tab

version 1
version 1

Whole song

Interactive

4,309 views 6 this week
no commentswrite comment
1 2 3 4 5
accurate
x 8
add to favorites
launch autoscroll
font size
0
reset
how to read this tab
guitar tuner
Tab Pro tools
  • play this tab
  • loop segment
  • change instrument
  • show fretboard
  • metronome
×
Best way to learn
"Black Heart"
Autoscroll
slow
fast
+/-
esc
set tempo
stop
Contributor
Difficulty
Tuning
intermediate
D G D G B D
Stone Temple Pilots - Black Heart
From the 'High Rise' EP (2013)
Open G Tuning
tabbed by jjhand


'Black Heart' bears similarity to some of Dean's open G guitar riffs on their 
last album but sounds fresh with Chester's vocals and has a nice original solo. 
Please rate & comment.

Verse

    play 3x
d|--------------------------|-------------------------|------------------------|
B|--------------------------|-------------------------|------------------------|
G|--12--0-12----12--0-10-11-|-12--0-12----12--0-10-11-|-12--0-12----12--0------|
D|--12--0-12----12--0-10-11-|-12--0-12----12--0-10-11-|-12--0-12----12--0--7-9-|
G|--12--0-12----12--0-10-11-|-12--0-12----12--0-10-11-|-12--0-12----12--0--7-9-|
D|--------------------------|-------------------------|------------------------|

|-------------------------|
|-------------------------|
|-------------------------|
|--10----10---------------|
|--10----9-----7--5--3--0-|
|-------------------------|




PreChorus
|-0---0--0--0--0--|-(0)----------|-0---0--0--0--0--|-(0)----------|
|-0h1-3--6--8--0--|-(0)----------|-0h1-3--6--8--8--|-(8)----------|
|-0---0--0--0--0--|-(0)----------|-0---0--0--0--0--|-(0)----------|
|--------------0--|-(0)----------|--------------8--|-(8)----------|
|-----------------|--------------|-----------------|--------------|
|-----------------|--------------|-----------------|--------------|

|-0---0--0--0-----|
|-0h1-3--6--8-----|
|-0---0--0--0-----|
|-----------------|
|-----------------|
|-----------------|



Chorus
   Eb                                            Bb        sus4
|-----------------------|----------------------|----------------------|
|-----------------------|----------------------|----------------------|
|-----------------------|----------------------|----------------------|
|--8----8----8--8--8--8-|-8----8----8--8--8--8-|----------------------|
|--8----8----8--7--8--7-|-8----8----8--7--8--7-|-7----7----8--7--8--7-|
|-----------------------|----------------------|-8----8----8--8--8--8-|

|-----------------------|----------------------|----------------------|
|-----------------------|----------------------|----------------------|
|-----------------------|----------------------|----------------------|
|-----------------------|-8----8----8--8--8--8-|-8----8----8--8--8--8-|
|--7----7----8--7--8--7-|-8----8----8--7--8--7-|-8----8----8--7--8--7-|
|--8----8----8--8--8--8-|----------------------|----------------------|

|-0---0--0--0--0--|
|-0h1-3--6--8--0--|
|-0---0--0--0--0--|
|--------------0--|  let ring
|-----------------|
|-----------------|


Play Verse Again

Play Prechorus and Chorus again


Break
|----------|-----------|----------|----------|---------|---------|-0---0--0--0-|
|-0------1-|-0---------|--------1-|-0--------|-------1-|-0-------|-0h1-3--6--8-|
|-0------0-|-0---------|-----0--0-|-0--------|-----0-0-|-0-------|-0---0--0--0-|
|-0--------|-0---------|-3--------|-0--------|-2-------|-0-------|-0-----------|
|-0--------|-0---------|-0--------|-0--------|-0-------|-0-------|-0-----------|
|----------|-----------|----------|----------|---------|---------|-------------|


Solo
|--------------------|-------0---0-----|-0---0-----------|----------------|
|-6------6-----6--6--|-6---------------|-/8--6-----------|---8---6---5\3~~|
|-8b10---8b10--8b-8b-|-8br10-7-5-4h5-7-|-----------x\----|--0---0---0-----|
|--------------------|-----------------|-----------------|-7---5---3------|
|--------------------|-----------------|-----------------|----------------|
|--------------------|-----------------|-----------------|----------------|

|-------------------------------------------|-----------------------------|
|-10h12h13p12-15p12h13p12-12p10-13p10-12----|-----------------------------|
|---------------------------------------10~-|-10h12p10----10--10----------|
|-------------------------------------------|---------12----12--12-10-9~--|
|-------------------------------------------|-----------------------------|
|-------------------------------------------|-----------------------------|

|-12-----12-12-12-12-12-12-|-----------------------|
|-13b15--13-12-x--x--x--12-|-12\10-8---------------|
|--------------14-12-14----|---------10b12-10b12~--|
|--------------------------|-----------------------|
|--------------------------|-----------------------|
|--------------------------|-----------------------|


Play Chorus Again

Ending
|-0---0--0--0--0--|-(0)----------|-0---0--0--0--0--|-(0)----------|
|-0h1-3--6--8--8--|-(8)----------|-0h1-3--6--8--0--|-(0)----------|
|-0---0--0--0--0--|-(0)----------|-0---0--0--0--0--|-(0)----------|
|--------------8--|-(8)----------|--------------0--|-(0)----------|
|-----------------|--------------|-----------------|--------------|
|-----------------|--------------|-----------------|--------------|



KEY
************************************

| /   slide up
| \   slide down
| h   hammer-on
| p   pull-off
| ~   vibrato
| +   harmonic
| x   Mute note
| ()  hold note from previous bar
| b   Bend
| pb  Pre-bend
| r   release bend
| br  Bend then release

************************************
comments
print report bad tab
I want to post or [tab]
guest
You may want to rate the tab now too:
select rating
Please do not post tabs as comments. Select "correction" instead!