Oops, an error
Loading. Please wait.

Crackerman Bass Tab

version 1
version 1

Whole song

Interactive

5,378 views 15 this week
1 commentread comment
1 2 3 4 5
accurate
x 5
add to favorites
launch autoscroll
font size
0
reset
guitar tuner
Autoscroll
slow
fast
+/-
esc
set tempo
stop
Help us to improve Ultimate-Guitar.com Take our survey!
×
deleo only plays 2 diff. lines through the whole song



stone temple pilots
crackerman
off their 1st album core
here r the lines:

G----------------|----------------|----------------|--------------|
D----------------|----------------|----------------|--------------|
A-0-2-2-0-2-2-0-2|-2-0-2-2-0-2-2-0|----------------|--0-----------|
E----------------|----------------|-0-2-2-0-2-2-0-2|-2-2-2-0-2-2-2|

G----------------|----------------|----------------|--------------|
D----------------|----------------|----------------|--------------|
A-0-2-2-0-2-2-0-2|-2-0-2-2-0-2-2-2|-0--------------|--------------|
E----------------|----------------|----------------|--------------|


G---------------|---------------|---------------|---------------|
D---------------|---------------|---------------|---------------|
A------0--------|--0------------|------0--------|--0------------|
E-0-2-2-2-2-0-2-|-2-2-2-0-2-2-2-|-0-2-2-2-2-0-2-|-2-2-2-0-2-2-2-|

THATS ALL FOLKS !
Suggest correction
comments
print report bad tab
1 comment total.
0 reply
KennyM79 2,227 wrote on February 2 2016, 09:23 am

Aside from the fact that there's no structure to these three lines of tabs, author was lazy and didn't bother to even create the complete tab lines; only listing two of the four strings. This makes the tab awkward to read. This is a horrible tab, and the height of laziness. If I could give a negative star rating, I would. *

guest
You may want to rate the tab now too:
select rating
Please do not post tabs as comments. Select "correction" instead!