Oops, an error
Loading. Please wait.

Crackerman Tab

version 1
version 1

Whole song

Interactive

50,917 views 132 this week
4 commentsread comments
1 2 3 4 5
x 17
add to favorites
launch autoscroll
font size
0
reset
how to read this tab
guitar tuner
Autoscroll
slow
fast
+/-
esc
set tempo
stop
Help us to improve Ultimate-Guitar.com Take our survey!
×
[Intro] 

                                                                           3x
e||------------------|-----------------|-----------------|-----------------||
B||------------------|-----------------|-----------------|-----------------||
G||*-----------------|-----------------|-----------------|----------------*||
D||*-2-4-4-2-4-4-2-4-|-4-2-4-4-2-4-4-2-|-------2---------|--2-------------*||
A||--0-2-2-0-2-2-0-2-|-2-0-2-2-0-2-2-0-|-2-4-4-0-4-4-2-4-|4-0-4-4-2-4-4-4--||
E||------------------|-----------------|-0-2-2---2-2-0-2-|2---2-2-0-2-2-2--||


 >.........................Fill A.......................<
e||-----------------|-----------------|-------|--------||
B||-----------------|-----------------|-------|v7~~~---||
G||-----------------|-----------------|-2~~~--|v8~~~---||
D||-2-4-4-2-4-4-2-4-|-4-2-4-4-2-4-4-2-|-2~~~--|v7~~~---||
A||-0-2-2-0-2-2-0-2-|-2-0-2-2-0-2-2-0-|-0~~~--|v0~~~---||
E||-----------------|-----------------|-------|------9\||


[Verse]
                                                            2x
e||------------------|-----------------|-----------------|-----------------||
B||------------------|-----------------|-----------------|-----------------||
G||*-----------------|-----------------|-----------------|----------------*||
D||*-------2---------|---2-------------|-------2---------|---2------------*||
A||--2-4-4-0-4-4-2-4-|-4-0-4-4-2-4-4-4-|-2-4-4-0-4-4-2-4-|-4-0-4-4-2-4-4-4-||
E||--0-2-2---2-2-0-2-|-2---2-2-0-2-2-2-|-0-2-2---2-2-0-2-|-2---2-2-0-2-2-2-||

                   "Kickin' as I'm tryin' to sleep
                    I got the mud beneath my shoes
                    Rubber band, rubber band, gun in hand,
                    Gun in hand I wanna use."



[Chorus]

(with Fill A, 1ST TIME ONLY)

                                                                           3x
e||------------------|-----------------|-----------------|-----------------||
B||------------------|-----------------|-----------------|-----------------||
G||*-----------------|-----------------|-----------------|----------------*||
D||*-2-4-4-2-4-4-2-4-|-4-2-4-4-2-4-4-2-|-------2---------|--2-------------*||
A||--0-2-2-0-2-2-0-2-|-2-0-2-2-0-2-2-0-|-2-4-4-0-4-4-2-4-|4-0-4-4-2-4-4-4--||
E||------------------|-----------------|-0-2-2---2-2-0-2-|2---2-2-0-2-2-2--||


 >.........................Fill A.......................<
e||-----------------|-----------------|-------|--------||
B||-----------------|-----------------|-------|v7~~~---||
G||-----------------|-----------------|-2~~~--|v8~~~---||
D||-2-4-4-2-4-4-2-4-|-4-2-4-4-2-4-4-2-|-2~~~--|v7~~~---||
A||-0-2-2-0-2-2-0-2-|-2-0-2-2-0-2-2-0-|-0~~~--|v0~~~---||
E||-----------------|-----------------|-------|------9\||

                  "Roamin', roamin', roam
                   (Get away, gotta get away.)
                   And I think I think too much.
                   (I don't care, yeah, but I don't care.)
                   Roamin', roamin', roam
                   (Get away, gotta get away.)
                   And I think I think too much."

[Verse 2]
                                                            2x
e||------------------|-----------------|-----------------|-----------------||
B||------------------|-----------------|-----------------|-----------------||
G||*-----------------|-----------------|-----------------|----------------*||
D||*-------2---------|---2-------------|-------2---------|---2------------*||
A||--2-4-4-0-4-4-2-4-|-4-0-4-4-2-4-4-4-|-2-4-4-0-4-4-2-4-|-4-0-4-4-2-4-4-4-||
E||--0-2-2---2-2-0-2-|-2---2-2-0-2-2-2-|-0-2-2---2-2-0-2-|-2---2-2-0-2-2-2-||

                  "Trippin' as I'm thinkin'
                   'Bout a boy, his name was Sue.
                   He's a man, he's a man, Crackerman,
                   Crackerman he's a woman too."


[Chorus]
                                                                           3x
e||------------------|-----------------|-----------------|-----------------||
B||------------------|-----------------|-----------------|-----------------||
G||*-----------------|-----------------|-----------------|----------------*||
D||*-2-4-4-2-4-4-2-4-|-4-2-4-4-2-4-4-2-|-------2---------|--2-------------*||
A||--0-2-2-0-2-2-0-2-|-2-0-2-2-0-2-2-0-|-2-4-4-0-4-4-2-4-|4-0-4-4-2-4-4-4--||
E||------------------|-----------------|-0-2-2---2-2-0-2-|2---2-2-0-2-2-2--||


[Bridge]

e||-----------------|-----------------------|-----------------|-------------|
B||-------------3-3-|---4b(5)r4---4-----5-5-|-------------3-3-|-------------|
G||-------------2-2-|---4b(5)r4-2-4-2/4-4-4-|-------------2-2-|-------------|
D||-------2---2-0-0-|-----------------------|-------2---2-0-0-|----0--------|
A||-4-4-4-0---0-----|-0---------------------|-4-----0---0-----|------0------|
E||-2-2-2-----------|-----------------------|-2---------------|--------5b(7)|

e|-------------|-----------------------|-------------|-------------||
B|-----------3-|---4b(5)r4---4-----5-5-|-----------3-|-------------||
G|-----------2-|---4b(5)r4-2-4-2/4-4-4-|-----------2-|-------------||
D|-----2-----0-|-----------------------|-----2-----0-|--0-0-0-0----||
A|-4---0---0---|-0---------------------|-4---0---0---|-------------||
E|-2-----------|-----------------------|-2-----------|----------12\||

                  "And I'm thinkin'
                   While I'm thinkin'.
                   And I'm thinkin'
                   While I'm thinkin'."


[Solo Rhythm] 

                                                            2x
e||------------------|-----------------|-----------------|-----------------||
B||------------------|-----------------|-----------------|-----------------||
G||*-----------------|-----------------|-----------------|----------------*||
D||*-------2---------|---2-------------|-------2---------|---2------------*||
A||--2-4-4-0-4-4-2-4-|-4-0-4-4-2-4-4-4-|-2-4-4-0-4-4-2-4-|-4-0-4-4-2-4-4-4-||
E||--0-2-2---2-2-0-2-|-2---2-2-0-2-2-2-|-0-2-2---2-2-0-2-|-2---2-2-0-2-2-2-|| (4x)


[Chorus]
                                                                           3x
e||------------------|-----------------|-----------------|-----------------||
B||------------------|-----------------|-----------------|-----------------||
G||*-----------------|-----------------|-----------------|----------------*||
D||*-2-4-4-2-4-4-2-4-|-4-2-4-4-2-4-4-2-|-------2---------|--2-------------*||
A||--0-2-2-0-2-2-0-2-|-2-0-2-2-0-2-2-0-|-2-4-4-0-4-4-2-4-|4-0-4-4-2-4-4-4--||
E||------------------|-----------------|-0-2-2---2-2-0-2-|2---2-2-0-2-2-2--||


[Bridge]

e||-----------------|-----------------------|-----------------|-------------|
B||-------------3-3-|---4b(5)r4---4-----5-5-|-------------3-3-|-------------|
G||-------------2-2-|---4b(5)r4-2-4-2/4-4-4-|-------------2-2-|-------------|
D||-------2---2-0-0-|-----------------------|-------2---2-0-0-|----0--------|
A||-4-4-4-0---0-----|-0---------------------|-4-----0---0-----|------0------|
E||-2-2-2-----------|-----------------------|-2---------------|--------5b(7)|

e|-------------|-----------------------|-------------|-------------||
B|-----------3-|---4b(5)r4---4-----5-5-|-----------3-|-------------||
G|-----------2-|---4b(5)r4-2-4-2/4-4-4-|-----------2-|-------------||
D|-----2-----0-|-----------------------|-----2-----0-|--0-0-0-0----||
A|-4---0---0---|-0---------------------|-4---0---0---|-------------||
E|-2-----------|-----------------------|-2-----------|----------12\||


[Outro]
                                                            2x
e||------------------|-----------------|-----------------|-----------------||
B||------------------|-----------------|-----------------|-----------------||
G||*-----------------|-----------------|-----------------|----------------*||
D||*-------2---------|---2-------------|-------2---------|---2------------*||
A||--2-4-4-0-4-4-2-4-|-4-0-4-4-2-4-4-4-|-2-4-4-0-4-4-2-4-|-4-0-4-4-2-4-4-4-||
E||--0-2-2---2-2-0-2-|-2---2-2-0-2-2-2-|-0-2-2---2-2-0-2-|-2---2-2-0-2-2-2-||

                  ends on this chord:  |-------|
                                       |-v4~~~-|
                                       |-v2~~~-|
                                       |-v4~~~-|
                                       |-v0~~~-|
                                       |-v0~~~-|

Vocal ad lib during outro: "Wind traps,
                            mud flaps,
                            dust blowin' in my eyes,
                            I'm rollin',
                            I'm rollin'..." etc.



************************************

| /  Slide up
| \  Slide down
| ~  Vibrato
|v   Upstroke
|b   Bend
|r   Release

************************************
Suggest correction
comments
print report bad tab
4 comments total. Showing first comments.
0 reply
c0z420 279 Oct 22, 2008 09:22 PM

Why can't one freakin person tab the solo to this song....its how old. FAIL!

0 reply
JimBonJovi 660 Feb 15, 2009 11:08 AM

Riff 1 (verse and chorus)maybe should be

E----------------------
B----------------------
G----------------------
D------4----4----------
A------2----0----4----4
E----------------2----0

I didn't count in how many times it's played just follow the tab transcript and listen how many times it's played!

0 reply
JimBonJovi 660 Mar 01, 2009 12:40 PM

Nevermind what I said. Sorry about that. Verse and intro riff could be done like you tabbed but there must be an easier way.

guest
You may want to rate the tab now too:
select rating
Wanna post a correction for this tab? Suggest correction