Oops, an error
Loading. Please wait.

Crackerman Tab

version 2
version 2

Whole song

Interactive

30,346 views 24 this week
4 commentsread comments
1 2 3 4 5
accurate
x 8
add to favorites
launch autoscroll
font size
0
reset
how to read this tab
guitar tuner
Autoscroll
slow
fast
+/-
esc
set tempo
stop
Help us to improve Ultimate-Guitar.com Take our survey!
×
Author
#----------------------------------PLEASE NOTE--------------------------------#
#This file is the author's own work and represents their interpretation of the#
#song. You may only use this file for private study, scholarship, or research.#
#-----------------------------------------------------------------------------#
#-- File created with Instab - http://www.pconline.com/~smcarey/instab.html --#
#-----------------------------------------------------------------------------#

Author/Artist: Stone Temple Pilots
Title: Crackerman


/ slide up
\ slide down
h hammer on
p pull off
b bend
r release bend


Strum between 1st and 2nd pickup.


Palm mute top four strings.
Tuning (eb A D G B E)



   |-----------------------------------------------------------------|
   |-----------------------------------------------------------------|
   |-----------------------------------------------------------------|
   |-----------------------------------------------------------------|
   |-0-2-2-0-2-2-0-2-2-0-2-2-0-2-2-2---------------------------------|
   |---------------------------------0-3-3-6-3-3-0-3-3-6-3-3-0-3-3-3-| 
Chorus/Intro




   |--------------------------------------------|
   |--------------------------------------------|
   |---------------------------------2---8------|
   |---------------------------------2---7------|
   |-0-2-2-0-2-2-0-2-2-0-2-2-0-2-2-2-0----------|
   |--------------------------------------------|
Chorus/Intro End






   |---------------------------------|--|------|
   |---------------------------------|--|------|
   |---------------------------------|--|------|
   |---------------------------------|--|------|
   |---------------------------------|--|------|
   |-0-3-3-6-3-3-0-3-3-6-3-3-0-3-3-3-|--|------|
Verse                                    Chorus





   |----------------------------------------------------------------------------------|
   |----------------------------------------------------------------------------------|
   |-----2---7--------------------------2---7-------------------2---7--h9p7h8p7-------|
   |-4---2---7---h9p7h9p7-----------4---2---7---------------4---2---7-----------------|
   |-4------------------------------4-----------------------4-------------------------|
   |-----------------------------------------------6b8r6--6---------------------------|
Interlude



   |----------------------5--------|
   |----------------------3--------|
   |------------------2------------|
   |--------------4---2------------|
   |--------------4----------------|
   |-------------------------------|





   |--------|
   |--------|
   |-8------|
   |-7------|
   |--------|
   |--------|
End


Suggest correction
comments
print report bad tab
4 comments total. Showing first comments.
0 reply
MagicsDevil 92 wrote on June 8 2010, 10:22 pm

Awesome tab, man. Glad to have been the first to comment.
5*****

+2 reply
JimBonJovi 659 wrote on September 25 2010, 11:35 am

I know you probably don't care but tought I'd mention that the last intro chord just before the verses begin should be whatn I've put in here. Other than that this is the way Dean plays it and it's superb my friend.

---|--------------------------------------|-----------------------------------|
---|-------------------------------7------|-----------------------------------|
---|-4-4-4-4-4-4-4-4-4-4-4-4-4-2---8------|-----------------------------------|
---|-4-4-4-4-4-4-4-4-4-4-4-4-4-2---7------|-----------------------------------|
---|-0-2-2-0-2-2-0-2-2-0-2-2-2-0----------|-----------------------------------|
---|--------------------------------------|-----------------------------------|

0 reply
brisuperfly 10 wrote on March 29 2015, 03:27 pm, edited on May 19 2015, 03:41 pm

Lack of accuracy. Clearly wrong. Why would you tune the 6th string to Eb? It's played in standard tuning. The verse and interlude sound okay, but are not the way Dean plays it. He uses an F# barre chord for the verse, not just the single notes. He also uses full barre/power chords for the interlude, and the hammer-on/pull-offs are just wrong. Watch Dean on a live video. Everything is played down low on the neck, except the the chord JimBonJovi posted above and the solo.

guest
You may want to rate the tab now too:
select rating
Please do not post tabs as comments. Select "correction" instead!