Oops, an error
Loading. Please wait.
We have an official Creep tab made by UG professional guitarists. Check out the tab »
×
146,391 views 84 this week
8 commentsread comments
1 2 3 4 5
x 49
add to favorites
×
Save as Personal and add changes to this tab that will be seen only by you. Learn more ›
×
You can save this tab as Personal to edit and correct it or add notes. All changes will be seen only by you. Learn more »
launch autoscroll
font size
0
reset
how to read this tab
guitar tuner
backing track
0:00
0:00
edit
Autoscroll
slow
fast
+/-
esc
set tempo
stop
Author
[Intro]
(Q=52)
4/4
(Gtr 1)
   E E E S S S S E   E S S    E E E. S S S E +S  S S S
e|-0---0---0---2-2---2-2---|------3--3-----3-(3)-3-3-3-|
B|-1---1---1---0-0---0-0-x-|------3--3-----3-(3)-3-3-3-|
G|-0---0---0---2-2---2-2-x-|------0--0---0-0-(0)-0-0-0-|
D|-2-2---2-----1-1---1-1-x-|------2--2---2-2-(2)-2-2-2-|
A|-3-3---------2-2---2-2---|--2---2--2---2-2-(2)-2-2-2-|
E|-------------------------|--0-0-0--0---0-0-(0)-0-0-0-|

(Gtr 2)
  E E E E   S S S S Q        W
e|-------------------2-----|--0------------------------|
B|-------1---------0-------|--0------------------------|
G|-----0---------2---------|--0------------------------|
D|---2---------1-----------|--2------------------------|
A|-3---------2-------------|--2------------------------|
E|-------------------------|--0------------------------|

    E E E. S S S E +S  S S S
e|--3---3--3-----3-(3)---3-0--|
B|--3---3--3-----3-(3)---3-0--|
G|--0---0--0-0---0-(0)---0-0--|
D|--2-2-2--2-----2-(2)---2-0--|
A|--2-2-2--------2-(2)---2----|
E|--0-0-0------0-0-(0)-0-0----|

   W
e|--0-------------------------|
B|--0-------------------------|
G|--0-------------------------|
D|--2-------------------------|
A|--2-------------------------|
E|--0-------------------------|

[Verses]
  E E E S S S S E   E +S  S S    W            E E E S S S S E +S  S S T T
e|-0---0-0-0---2-2---2-(2)-0---|--3--------|------3---------------3-3-----|
B|-1---1-1-1---0-0---0-(0)-0---|--3--------|o-----3---3-----0-(0)-3-3-x-x-|
G|-0---0-0-0---2-2---2-(2)-----|--0--------|--0---0---0---0-0-(0)-0-0-x-x-|
D|-2-2-2---2---1-1---1-(1)-----|--2--------|--2---2---2---2-2-(2)-2-2-x-x-|
A|-3-3-3-------2-2---2-(2)-----|--2--------|o-2---2-------2-2-(2)-2-2-----|
E|---------------------------0-|--0--------|--0-0-0-0-----0-0-(0)-0-0-----|

  E E E E   S S S S Q            W            E E E E   E   E  E    E
e|-------------------2---------|--3--------|------------------------------|
B|-------1---------0-0---------|--3--------|o-----3------------3----------|
G|-----0---------2---2---------|--0--------|----0---0-------0-------0-----|
D|---2---------1---------------|--2--------|--2---------2-----------------|
A|-3---------2-----------------|--2--------|o-----------------------------|
E|-----------------------------|--0--------|------------------------------|

   E E E.   S S S E Q     E S S E S S S S E +S  S S S   E E E S S S S E E S S
e|-0---0----------2-2---|-------3---3-----3-(3)-------|-0---0---------2-2-----|
B|-1---1--------0-0-0---|-------3---3-----3-(3)---0---|-1---1-1-1---0-0-0-0-0-|
G|-0-0-0----0---2-2-2---|-------0-0-0-----0-(0)-0-0---|-0---0-0-0---2-2-2-----|
D|-2-2-2----2---1-1-1---|-------2---------2-(2)-2-2---|-2-2-2-2-2---1-1-1-----|
A|-3-3-3--------2---2---|-2---2-2-------2-------2-2---|-3-3-3---3---2-2-2-----|
E|----------------------|-0-0-0-0-----0---------0-0-0-|-----------------------|

  E E E  E   E   E E E   E E   E E   E   E  E    E     E E E E   E   E E E
e|----------------------|-----------------------------|-----------------------|
B|-----3------------0---|-------3------------3--------|-----3-----------0-----|
G|---0----0-------0---0-|---0-----0-------0-------0---|---0---0-------0---0---|
D|-2----------4---------|-2-----------2---------------|-2---------4-----------|
A|----------------------|-----------------------------|-----------------------|
E|----------------------|-----------------------------|-----------------------|

   E E E S S S S E +S  S S S   E E E.   S S S E E S T T
e|-----3---3-----3-(3)---0-0-|-0---0--------2-2-2-------|
B|-----3---3---3-3-(3)---3-0-|-1-1-1----1---0-0-0-0-0-x-|
G|-----0---0-0-0-0-(0)---0-0-|-0-0-0----0---2-2-2---0-x-|
D|-----2-2-2---2-2-(2)-------|-2-2-2----2---1-1-1---1-x-|
A|-2---2-2-2---2-------------|-3-3-3----3---2-2-2-------|
E|-0-0-0---0---0-------0-----|--------------------------|

   E E E E   E   E  E    E     E E E  E   E   E E E
e|---------------------------|--------------------------|
B|-----3------------3--------|-----3------------0-------|
G|---0---0-------0-------0---|---0----0-------0---0-----|
D|-2---------2---------------|-2----------4-------------|
A|---------------------------|--------------------------|
E|---------------------------|--------------------------|

   E E E.   S S S E +S  S S S
e|-----3----3-----3-(3)---0-0--|
B|-----3----3-----3-(3)---0-0--|
G|-----0----0-----0-(0)---0-0--|
D|-----2----2-----2-(2)---2-0--|
A|-2---2----2-----2-(2)-2-2----|
E|-0-0-0----0---0-0-(0)-0-0----|

   E E E  E   E   E  E    E
e|-----------------------------|
B|-----3-------------3---------|
G|---0----0-------0-------0----|
D|-2----------2----------------|
A|-----------------------------|
E|-----------------------------|

   E E E S S S S E E S T T   E.   S E.   S S S E   +S  S S S
e|-----0-------2-2-2-------|--------3----3-----3---(3)-----3-|
B|---1-1-------0-0-0-0-0-x-|--------3----3-----3---(3)-----3-|
G|-0-0-0-------2-2-2---0-x-|--------0----0-----0---(0)-0---0-|
D|-2-2-2-2-0---1-1-1---1-x-|--------2----2-----2---(2)-2---2-|
A|-3-3-3-3-0---2-2-2-------|------2-2----------2---(2)-2---2-|
E|-------------------------|-0----0-0--------0---------0-0-0-|

   E E E E   E   E E E       E  E   E  E   S S S S  S  S S S
e|-------------------------|---------------------------------|
B|-----3-----------0-------|--------3----------3---------3---|
G|---0---0-------0---0-----|----0------0-----0---------0---0-|
D|-2---------4-------------|-2-------------4-----4s=5--------|
A|-------------------------|---------------------------------|
E|-------------------------|---------------------------------|

    Q  E. S +S  S E +S  S S S
e|-----3--3-(3)---------3-3---|
B|-----3--3-(3)---3-(3)-3-3---|
G|-----0--0-(0)---0-(0)-0-0-0-|
D|-----2--------2-2-(2)-2-2-0-|
A|--2--2--------2-------2-2---|
E|--0--0--------0-------0-0---|

    W
e|-^0-------------------------|
B|-^3-------------------------|
G|-^0-------------------------|
D|-^5-------------------------|
A|----------------------------|
E|----------------------------|

[Pre-Chorus]
   $
   E E E  S S S S E E S S    E. S E S S S S E +S  S S S   E E E. S S S E Q
e|-3---3----3---0---0-----|-------3---3-----3-(3)---3-3-|-3---3--3---0---0---|
B|-3---3----3---0---0---x-|-------3---3-----3-(3)---3-3-|-3---3--3---0---0---|
G|-0-0-0----0---2-2-2---x-|-------0-0-0-----0-(0)---0-0-|-0-0-0--0---2-2-2---|
D|-0-0-0----0---2-2-2-2-x-|--2--2-2-2-2-----2-(2)---2---|-0-0-0--0---2-2-2---|
A|-2-2-2----2---0-0-0-0---|--2--2-2-2-2---2-2-(2)-2-2---|-2-2-2--2---0-0-0---|
E|-3-3-3--3-0-3-----------|--0--0-0---0---0-0-(0)-0-0---|-3-3-3--3-----------|

   Q   E.   S S S E Q        W                            Q   E. S S S E Q
e|-3---3----3---0-0-0-----|--0--------------------------|-3---3--3---0-0-0---|
B|-3---3----3---0-0-0-----|--0--------------------------|-3---3--3---0-0-0---|
G|-0---0----0---2-2-2-----|--0--------------------------|-0---0--0---2-2-2---|
D|-0---0----0---2-2-2-----|--2--------------------------|-0---0--0---2-2-2---|
A|-2---2----2---0-0-0-----|--2--------------------------|-2---2--2---0-0-0---|
E|-3---3----3-------------|--0--------------------------|-3---3--3-----------|

    E. S S S S S +Q   +S  S S S
e|-------3-3---3-(3)--(3)---3-3-|
B|-------3-3---3-(3)--(3)---3-3-|
G|-------0-0---0-(0)--(0)---0-0-|
D|-------2-----2-(2)--(2)-2-2-0-|
A|--2----------2-(2)--(2)-2-2---|
E|--0--0-----0-0-(0)--(0)-0-0---|

    W
e|--0---------------------------|
B|--0---------------------------|
G|--0---------------------------|
D|--2---------------------------|
A|--2---------------------------|
E|--0---------------------------|

   E E E. S S S E E. S     Q  E. S S S E  Q
e|-3---3--3---0---0--0---|-0--0--0---2-2--2-------|
B|-3---3--3---0---0--0---|-1--1--1---3-3--3-------|
G|-0-0-0--0---2-2-2--2---|-0--0--0---2-2--2-------|
D|-0-0-0--0---2-2-2--2---|-2--2--2---0-0--0-------|
A|-2-2-2--2---0-0-0--0---|-3--3--3---0-0--0-------|
E|-3-3-3--3--------------|------------------------|

(Gtr 3)
   Q   E. S S S E E. T T   H       Q      E    E
e|-3---3--3---0-0-0------|------------------------|
B|-3---3--3---0-0-0--0-0-|------------------------|
G|-0---0--0---2-2-2--2-2-|------------------------|
D|-0---0--0---2-2-2--2-2-|------------------------|
A|-2---2--2---0-0-0--0-0-|------------------------|
E|-3---3--3--------------|---------------/x\-/12\-|

[Chorus]
(Gtr 4)
   S S S S S S S S S  S S S S S S S
e|----------------------------------|
B|----------------------------------|
G|----------------------------------|
D|-----0-------0--------0-------0-2-|
A|---2-------0--------0-----0-2-----|
E|-0-----0-2-----2-3------3---------|

(Gtr 3)
  Q       Q       E.     S S S S S
e|----------------------------------|
B|----------------------------------|
G|----------------------------------|
D|------------------------------0-2-|
A|--------------------------0-2-----|
E|-0-------2-------3------3---------|

                                ~
   S S S S S S S S S  S S S S S E   S S S S S S S S S  S S S S S S S
e|--------------------------------|-----------------------------------|
B|--------------------------------|-----------------------------------|
G|--------------------------------|-----------------------------------|
D|-----0-------0--------0---------|-----0-------0--------0-------0-2--|
A|---2-------0--------2-----0-1-2-|---2-------0--------2-----0-2------|
E|-0-----0-2-----2-3------3-------|-0-----0-2-----2-3------3----------|

                                ~
   Q       Q       E.     S S S E
e|--------------------------------|
B|--------------------------------|
G|--------------------------------| (x3)
D|--------------------------------|
A|--------------------------0-1-2-|
E|-0-------2-------3------3-------|

                                ~
   S S S S S S S S S  S S S S S E   S S S S S S S S S  S S S S S S S
e|--------------------------------|----------------------------------|
B|--------------------------------|----------------------------------|
G|--------------------------------|----------------------------------|
D|-----0-------0--------0---------|-----0-------0--------0-------0-2-|
A|---2-------0--------2-----0-1-2-|---2-------0--------2-----0-2-----|
E|-0-----0-2-----2-3------3-------|-0-----0-2-----2-3------3---------|

                                ~
   S S S S S S S S S  S S S S S E
e|----------------------------------|
B|----------------------------------|
G|----------------------------------|
D|-----0-------0--------0-----------|
A|---2-------0--------2-----0-1-2---|
E|-0-----0-2-----2-3------3---------|

[Coda]
                                                                   ~
   S S S S S S S S S  S S S S S S S   S S S S S S S S S  S S S S S E
e|----------------------------------|--------------------------------|
B|----------------------------------|--------------------------------|
G|----------------------------------|--------------------------------|
D|-----0-------0--------0-------0-2-|-----0-------0--------0---------|
A|---2-------0--------2-----0-2-----|---2-------0--------2-----0-1-2-|
E|-0-----0-2-----2-3------3---------|-0-----0-2-----2-3------3-------|

(Gtr 1)
    Q  E. S S S E +S  S S S   E E S S S S +H
e|-----3--------------3-3-3-|-----3-3-3-3-(3)-----|
B|-----3--------------3-3-3-|-----3-3-3-3-(3)----o|
G|-----0--------------0-0-0-|-----0-0-0-0-(0)-----|
D|-----2--------------2-2-2-|-----2-2-2-2-(2)-----|
A|--2--2--2---2-2-(2)-2-2-2-|-2-2-2-2-2-2-(2)----o|
E|--0--0--0---0-0-(0)-0-0-0-|-0-0-0-0-0-0-(0)-----|

(Gtr 5)
    W                         W
e|--0-----------------------|---------------------|
B|--3-----------------------|--------------------o|
G|--0-----------------------|---------------------|
D|--5-----------------------|---------------------|
A|--------------------------|--------------------o|
E|--------------------------|---------------------|

(Gtr 1)
    W                    W                  W                  W
e|-^0-----------------|-^0---------------|-^0---------------|-^0---------|
B|-^3-----------------|-^3---------------|-^3---------------|-^3---------|
G|-^0-----------------|-^0---------------|-^0---------------|-^0---------|
D|-^4-----------------|-^4---------------|-^4---------------|-^4---------|
A|-^2-----------------|-^2---------------|-^2---------------|-^2---------|
E|-^0-----------------|-^0---------------|-^0---------------|-^0---------|

(Gtr 5)
    Q  S E S +E  Q.      Q  S E S +H        Q  S E S +H        W
e|-----0--------------|------------------|-----0------------|--0---------|
B|-------3-3-(3)------|------------------|-------3----------|--3---------|
G|--------------------|-------0----------|---------0-(0)----|--0---------|
D|---------------5----|-----4---4-(4)----|------------------|--4---------|
A|--------------------|------------------|------------------|------------|
E|--------------------|------------------|------------------|------------|

(Gtr 4)
   S S S S S S S S S  S S S S S E   +W
e|--------------------------------|--------*|
B|--------------------------------|--------*|
G|--------------------------------|--------*|
D|-----0-------0--------0---------|--------*|
A|---2-------0--------2-----0-1-2-|-(2)----*|
E|-0-----0-2-----2-3------3-------|--------*|

(Gtr 3)
   Q       Q       E.     S S S E   +W
e|--------------------------------|--------*|
B|--------------------------------|--------*|
G|--------------------------------|--------*|
D|--------------------------------|--------*|
A|--------------------------0-1-2-|-(2)----*|
E|-0-------2-------3------3-------|--------*|


************************************

| (n)  Ghost note
| x    Dead note
| /    Slide up
| \    Slide down
| ~    Vibrato
| *    Natural harmonic  

************************************

            
            
Suggest correction
Creating personal tab
Creating personal tab
You can edit any tab online and save it as your Personal.

You can edit, replace or remove any tab part or add personal notes – all changes will be seen only by you.

Personal tabs can be accessed anytime from any device, even offline.
Learn more »
comments
print report bad tab
8 comments total. Showing first comments.
0 reply
jaames 1,351 Aug 09, 2006 10:10 AM

awesome, strumming patterns and everything, thanks, 5.

0 reply
ShaneOmac066 10 May 12, 2007 04:07 PM

looks great and fun to play
5 stars

0 reply
wykyd1 10 Jun 06, 2008 08:00 PM

This is a great tab. For sure a five star rating.

guest
You may want to rate the tab now too:
select rating
Wanna post a correction for this tab? Suggest correction