Oops, an error
Loading. Please wait.
We have an official Creep tab made by UG professional guitarists. Check out the tab »
×
3,109 views 189 this week
no commentswrite comment
1 2 3 4 5
x 3
add to favorites
×
Save as Personal and add changes to this tab that will be seen only by you. Learn more ›
×
You can save this tab as Personal to edit and correct it or add notes. All changes will be seen only by you. Learn more »
launch autoscroll
font size
0
reset
transpose
0
reset
simplify chords
display chords
guitar tuner
backing track
0:00
0:00
edit
Autoscroll
slow
fast
+/-
esc
set tempo
stop
Strumming
There is no strumming pattern for this song yet. and get +5 IQ
Shout-Out to EpicGuitarInstruction.com

Strumming Pattern 
C (D/D/U/D) B7 (D/D/D/U)  Em (D)  Em7 (D/D/U/U/D/D/U/D/U)
G (D/D/D) Am (D/U)  Asus2 (D/D) Em(D) Em7(D/D/U/U/D/D/U/D/U) Cad9 (D/D/D/U) D (D/D/D/U/D/U)

[Intro]
C B7 Em Em7
C B7 Em 

[Verse]

Em7          C     B7             Em
Forward yesterday, Makes me wanna stay
Em7                C     B7             Em
What they said was real, Makes me wanna steal
Em7          C                B7              Em
Livin' under house, Guess I'm livin', I'm a mouse
Em7             C     B7                     Em     Em7 Em Em7
All's I gots is time, Got no meaning, just a rhyme

[Pre-Chorus]

G                Am      Asus2           Em           Em7
Take time with a wounded hand, 'Cause it likes to heal
G                Am      Asus2           Em            Em7
Take time with a wounded hand, 'Cause I like to steal
G                Am      Asus2           Cadd9            D
Take time with a wounded hand, 'Cause it likes to heal, I like to steal

[Chorus] 
Lick is played 4x for each chorus

D------0-------0--------0---------0-2------0-------0--------0--------
A----2-------0--------2-------0-2--------2-------0--------2-----0-1-2
E--0-----0-2------2-3-------3----------0-----0-2------2-3------3-----
I'm half the man I used to be

D------0-------0--------0---------0-2------0-------0--------0--------
A----2-------0--------2-------0-2--------2-------0--------2-----0-1-2
E--0-----0-2------2-3-------3----------0-----0-2------2-3------3-----
This I feel as the dawn

D------0-------0--------0---------0-2------0-------0--------0--------
A----2-------0--------2-------0-2--------2-------0--------2-----0-1-2
E--0-----0-2------2-3-------3----------0-----0-2------2-3------3-----
It fades to gray

D------0-------0--------0---------0-2------0-------0--------0--------
A----2-------0--------2-------0-2--------2-------0--------2-----0-1-2
E--0-----0-2------2-3-------3----------0-----0-2------2-3------3-----
Well, I'm half the man I used to be

NC
Half the man I used to be


  
[Verse] 

Em7         C       B7                 Em
Feelin' uninspired, Think I'll start a fire
Em7       C    B7            Em
Everybody run, Bobby's got a gun
Em7                C              B7             Em
Think you're kinda neat, Then she tells me I'm a creep
Em7                  C      B7                  Em      Em7 Em Em7
Friends don't mean a thing, Guess I'll leave it up to me

[Pre-Chorus]

G                Am      Asus2           Em           Em7
Take time with a wounded hand, 'Cause it likes to heal
G                Am      Asus2           Em            Em7
Take time with a wounded hand, 'Cause I like to steal
G                Am      Asus2           Cadd9            D
Take time with a wounded hand, 'Cause it likes to heal, I like to steal

[Chorus]

D------0-------0--------0---------0-2------0-------0--------0--------
A----2-------0--------2-------0-2--------2-------0--------2-----0-1-2
E--0-----0-2------2-3-------3----------0-----0-2------2-3------3-----
I'm half the man I used to be

D------0-------0--------0---------0-2------0-------0--------0--------
A----2-------0--------2-------0-2--------2-------0--------2-----0-1-2
E--0-----0-2------2-3-------3----------0-----0-2------2-3------3-----
This I feel as the dawn

D------0-------0--------0---------0-2------0-------0--------0--------
A----2-------0--------2-------0-2--------2-------0--------2-----0-1-2
E--0-----0-2------2-3-------3----------0-----0-2------2-3------3-----
It fades to gray

D------0-------0--------0---------0-2------0-------0--------0--------
A----2-------0--------2-------0-2--------2-------0--------2-----0-1-2
E--0-----0-2------2-3-------3----------0-----0-2------2-3------3-----
Well, I'm half the man I used to be

NC
Half the man I used to be


[Pre-Chorus]

G                Am      Asus2           Em           Em7
Take time with a wounded hand, 'Cause it likes to heal
G                Am      Asus2           Em            Em7
Take time with a wounded hand, 'Cause I like to steal
G                Am      Asus2           Cadd9            D
Take time with a wounded hand, 'Cause it likes to heal, I like to steal

[Chorus 2]
D------0-------0--------0---------0-2------0-------0--------0--------
A----2-------0--------2-------0-2--------2-------0--------2-----0-1-2
E--0-----0-2------2-3-------3----------0-----0-2------2-3------3-----
I'm half the man I used to be

D------0-------0--------0---------0-2------0-------0--------0--------
A----2-------0--------2-------0-2--------2-------0--------2-----0-1-2
E--0-----0-2------2-3-------3----------0-----0-2------2-3------3-----
This I feel as the dawn

D------0-------0--------0---------0-2------0-------0--------0--------
A----2-------0--------2-------0-2--------2-------0--------2-----0-1-2
E--0-----0-2------2-3-------3----------0-----0-2------2-3------3-----
It fades to gray

D------0-------0--------0---------0-2------0-------0--------0--------
A----2-------0--------2-------0-2--------2-------0--------2-----0-1-2
E--0-----0-2------2-3-------3----------0-----0-2------2-3------3-----
Well, I'm half the man I used to be

NC
Half the man I used to be

            
            
Suggest correction
Creating personal tab
Creating personal tab
You can edit any tab online and save it as your Personal.

You can edit, replace or remove any tab part or add personal notes – all changes will be seen only by you.

Personal tabs can be accessed anytime from any device, even offline.
Learn more »
Give kudos to tab author, rate the tab!
1 2 3 4 5
comments
print report bad tab
guest
You may want to rate the tab now too:
select rating
Wanna post a correction for this tab? Suggest correction