Oops, an error
Loading. Please wait.

Days Of The Week Tab

version 1
version 1

Whole song

Interactive

7,736 views 12 this week
no commentswrite comment
1 2 3 4 5
accurate
x 3
add to favorites
launch autoscroll
font size
0
reset
how to read this tab
guitar tuner
Autoscroll
slow
fast
+/-
esc
set tempo
stop
Help us to improve Ultimate-Guitar.com Take our survey!
×
Artist : Stone Temple Pilots 
Song   : "Days of the week" 
Album  : Shangri-la 
Tab    : Mike (mmassey@snip.net) 

h=hammer-on 
p=pull-off 
x=left hand mute 
.=staccato 


*clean guitar doubles throughout except for bridge 

     Amaj           Emaj     Amaj                                            4x 
E|---5------5-5-----4---4--x-5-5---5-------------------------------------------- 
B|---5------5-5---x-5---5--x-5-5---5-------------------------------------------- 
G|---6----x-6-6---x-4---4--x-6-6---6---4--6--8--6---4-4-4--6---8--6---4-4------- 
D|---7----x---7---x-6--------7-7---7---5--7--9--7---5-5-5--7---9--7---5-5------- 
A|---7----x------------------------7---5--7--9--7---5-5-5--7---9--7---5-5------- 
E|---5----x----------------------------3--5--7--5---3-3-3--5---7--5---3-3------- 

                                                                          .         . 
E|------------------------------------------------2-----------------------5---------5----------- 
B|-----------------3----3---3-3-3-----------------3--3-3----3-------------5---------5----------- 
G|---3------3----x-4--4-4---4-4-4-x-3------3---x--4--4-4--4-4-4--x---7----7---7-----7-------7--- 
D|---4---4--4-4--x-4--4-4---4-4-4-x-4---4--4-4-x--4--4-4--4-4-4--x---7--------7---------7-7-7--- 
A|---4---4--4-4--x-2--2-2---2-2-2-x-4---4--4-4-x--2--2-2--2-2-2--x---5--------5---------5-5-5--- 
E|---2---2--2-2---------------------2---2--2-2-------------------------------------------------- 

     Amaj           Emaj     Amaj                                            5x 
E|---5------5-5-----4---4--x-5-5---5-------------------------------------------- 
B|---5------5-5---x-5---5--x-5-5---5-------------------------------------------- 
G|---6----x-6-6---x-4---4--x-6-6---6---4--6--8--6---4-4-4--6---8--6---4-4------- 
D|---7----x---7---x-6--------7-7---7---5--7--9--7---5-5-5--7---9--7---5-5------- 
A|---7----x------------------------7---5--7--9--7---5-5-5--7---9--7---5-5------- 
E|---5----x----------------------------3--5--7--5---3-3-3--5---7--5---3-3------- 

     F#maj         B                                                 D    .         . 
E|------------------------------------------------2-----------------------5---------5----------- 
B|-----------------3----3---3-3-3-----------------3--3-3----3-------------5---------5----------- 
G|---3------3----x-4--4-4---4-4-4-x-3------3---x--4--4-4--4-4-4--x---7----7---7-----7-------7--- 
D|---4---4--4-4--x-4--4-4---4-4-4-x-4---4--4-4-x--4--4-4--4-4-4--x---7--------7---------7-7-7--- 
A|---4---4--4-4--x-2--2-2---2-2-2-x-4---4--4-4-x--2--2-2--2-2-2--x---5--------5---------5-5-5--- 
E|---2---2--2-2---------------------2---2--2-2-------------------------------------------------- 
                                                                               2x 
E|------------------------------------------------------------------------------- 
B|------------------------------------------------------------3h5p3-------------- 
G|------------------------------------------------------4h5p4-------4---4--4----- 
D|-------0--2---4h5p4--2h4p2-----------------------0--2-------------------------- 
A|--2--3----------------------2------2--2----2--3-------------------------------- 
E|------------------------------------------------------------------------------- 
*there is also a sitar mimicking the guitar in this part 

     Amaj           Emaj     Amaj                                            2x 
E|---5------5-5-----4---4--x-5-5---5-------------------------------------------- 
B|---5------5-5---x-5---5--x-5-5---5-------------------------------------------- 
G|---6----x-6-6---x-4---4--x-6-6---6---4--6--8--6---4-4-4--6---8--6---4-4------- 
D|---7----x---7---x-6--------7-7---7---5--7--9--7---5-5-5--7---9--7---5-5------- 
A|---7----x------------------------7---5--7--9--7---5-5-5--7---9--7---5-5------- 
E|---5----x----------------------------3--5--7--5---3-3-3--5---7--5---3-3------- 
  
     F#maj         B                                                 D    .         . 
E|------------------------------------------------2-----------------------5---------5----------- 
B|-----------------3----3---3-3-3-----------------3--3-3----3-------------5---------5----------- 
G|---3------3----x-4--4-4---4-4-4-x-3------3---x--4--4-4--4-4-4--x---7----7---7-----7---7-7-7--- 
D|---4---4--4-4--x-4--4-4---4-4-4-x-4---4--4-4-x--4--4-4--4-4-4--x---7--------7---------7-7-7--- 
A|---4---4--4-4--x-2--2-2---2-2-2-x-4---4--4-4-x--2--2-2--2-2-2--x---5--------5---------5-5-5--- 
E|---2---2--2-2---------------------2---2--2-2-------------------------------------------------- 
  
    D    .         .                 . 
E|-------5---------5-----------------5----- 
B|-------5---------5-----------------5----- 
G|--7----7---7-----7---7-7-7---7-----7----- 
D|--7--------7---------7-7-7---7----------- 
A|--5--------5---------5-5-5---5----------- 
E|----------------------------------------- 

Comments, Questions, Corrections to mmassey@snip.net
Suggest correction
What's this?
You can suggest a correction to this tab. Community and Mods will review your correction and vote to approve or reject it.
comments
We did not receive enough feedback on this tab! Please rate:
print report bad tab
1 2 3 4 5
guest
You may want to rate the tab now too:
select rating
Please do not post tabs as comments. Select "correction" instead!