Oops, an error
Loading. Please wait.

Dead And Bloated bass

version 2
version 2

Whole song

Interactive

1,530 views 9 this week
no commentswrite comment
1 2 3 4 5
x 6
add to favorites
×
Save as Personal and add changes to this tab that will be seen only by you. Learn more ›
×
You can save this tab as Personal to edit and correct it or add notes. All changes will be seen only by you. Learn more »
launch autoscroll
font size
0
reset
guitar tuner
backing track
0:00
0:00
edit
Autoscroll
slow
fast
+/-
esc
set tempo
stop
STONE TEMPLE PILOTS
“DEAD AND BLOATED”


Tuning: Drop-D


Intro

G|--------------------------------------|---------------------------------|
D|--------------------------------------|---------------------------------|
A|--------------------------------------|---------------------------------|
D|-0--0--6-5-3-5-3-0--6-5-3-5-3-0--0--0-|-6-5-3-5~-6-5-3-5~-6-5-3-5-3-0-0-|


Verse

G|--------------------------------------|---------------------------------|
D|--------------------------------------|---------------------------------|
A|--------------------------------------|---------------------------------|
D|-0--0--6-5-3-5-3-0--6-5-3-5-3-0--0--0-|-6-5-3-5--6-5-3-5--6-5-3-5-3-0-0-|

G|--------------------------------------|---------------------------------|
D|--------------------------------------|---------------------------------|
A|--------------------------------------|---------------------------------|
D|-0--0--6-5-3-5-3-0--6-5-3-5-3-0--0--0-|-6-5-3-5--6-5-3-5--6-5-3-5-3-0-0-|


Chorus

G|----------------------------------------------------|
D|----------------------------------------------------|
A|----------------------------------------------------|
D|-9--9--5--5-5-0-5-5-5-2--2-2-0h2-2-2--2-2-2-0h2-2-2-|

G|----------------------------------------------------|
D|----------------------------------------------------|
A|----------------------------------------------------|
D|-9--9--5--5-5-0-5-5-5-2--2-2-0h2-2-2--2-2-2-0h2-2-2-|

G|----------------------------------------------------|
D|----------------------------------------------------|
A|----------------------------------------------------|
D|-9--9--5--5-5-0-5-5-5-2--2-2-0h2-2-2--2-2-2-0h2-2-2-|

G|----------------------------------------------------|
D|----------------------------------------------------|
A|----------------------------------------------------|
D|-9--9--5--5-5-0-5-5-5-2--2-2-0h2-2-2--2-2-2-0h2-2-2-|


Post-Chorus

G|---------------------------------|---------------------------------|
D|---------------------------------|---------------------------------|
A|---------------------------------|---------------------------------|
D|-2h4-4-2h4-4-2h4-4-2h4-4-2h4-4-4-|-2h4-4-2h4-4-2h4-4-2h4-4-2h4-4-4-|

G|---------------------------------|---------------------------------|
D|---------------------------------|---------------------------------|
A|---------------------------------|---------------------------------|
D|-2h4-4-2h4-4-2h4-4-2h4-4-2h4-4-4-|-2h4-4-2h4-4-2h4-4-2h4-4-2h4-4-4-|


Verse

G|--------------------------------------|---------------------------------|
D|--------------------------------------|---------------------------------|
A|--------------------------------------|---------------------------------|
D|-0--0--6-5-3-5-3-0--6-5-3-5-3-0--0--0-|-6-5-3-5--6-5-3-5--6-5-3-5-3-0-0-|

G|--------------------------------------|---------------------------------|
D|--------------------------------------|---------------------------------|
A|--------------------------------------|---------------------------------|
D|-0--0--6-5-3-5-3-0--6-5-3-5-3-0--0--0-|-6-5-3-5--6-5-3-5--6-5-3-5-3-0-0-|


Chorus

G|----------------------------------------------------|
D|----------------------------------------------------|
A|----------------------------------------------------|
D|-9--9--5--5-5-0-5-5-5-2--2-2-0h2-2-2--2-2-2-0h2-2-2-|

G|----------------------------------------------------|
D|----------------------------------------------------|
A|----------------------------------------------------|
D|-9--9--5--5-5-0-5-5-5-2--2-2-0h2-2-2--2-2-2-0h2-2-2-|

G|----------------------------------------------------|
D|----------------------------------------------------|
A|----------------------------------------------------|
D|-9--9--5--5-5-0-5-5-5-2--2-2-0h2-2-2--2-2-2-0h2-2-2-|

G|----------------------------------------------------|
D|----------------------------------------------------|
A|----------------------------------------------------|
D|-9--9--5--5-5-0-5-5-5-2--2-2-0h2-2-2--2-2-2-0h2-2-2-|


Post-Chorus

G|---------------------------------|---------------------------------|
D|---------------------------------|---------------------------------|
A|---------------------------------|---------------------------------|
D|-2h4-4-2h4-4-2h4-4-2h4-4-2h4-4-4-|-2h4-4-2h4-4-2h4-4-2h4-4-2h4-4-4-|

G|---------------------------------|---------------------------------|
D|---------------------------------|---------------------------------|
A|---------------------------------|---------------------------------|
D|-2h4-4-2h4-4-2h4-4-2h4-4-2h4-4-4-|-2h4-4-2h4-4-2h4-4-2h4-4-2h4-4-4-|


Bridge

G|-------------------------------|---------------------------------|
D|-------------------------------|---------------------------------|
A|-------------------------------|---------------------------------|
D|-9-8-7-6-5-7-5-5\2-2-2-5\2-2-2-|-0-2-2-2-5\2-2-2-5\2-2-2-0-2-2-2-|

G|-------------------------------|---------------------------------|
D|-------------------------------|---------------------------------|
A|-------------------------------|---------------------------------|
D|-9-8-7-6-5-7-5-5\2-2-2-5\2-2-2-|-0-2-2-2-5\2-2-2-5\2-2-2-0-2-2-2-|


Post-Chorus

G|---------------------------------|---------------------------------|
D|---------------------------------|---------------------------------|
A|---------------------------------|---------------------------------|
D|-2h4-4-2h4-4-2h4-4-2h4-4-2h4-4-4-|-2h4-4-2h4-4-2h4-4-2h4-4-2h4-4-4-|

G|---------------------------------|---------------------------------|
D|---------------------------------|---------------------------------|
A|---------------------------------|---------------------------------|
D|-2h4-4-2h4-4-2h4-4-2h4-4-2h4-4-4-|-2h4-4-2h4-4-2h4-4-2h4-4-2h4-4-4-|


Verse

G|--------------------------------------|---------------------------------|
D|--------------------------------------|---------------------------------|
A|--------------------------------------|---------------------------------|
D|-0--0--6-5-3-5-3-0--6-5-3-5-3-0--0--0-|-6-5-3-5--6-5-3-5--6-5-3-5-3-0-0-|

G|--------------------------------------|---------------------------------|
D|--------------------------------------|---------------------------------|
A|--------------------------------------|---------------------------------|
D|-0--0--6-5-3-5-3-0--6-5-3-5-3-0--0--0-|-6-5-3-5--6-5-3-5--6-5-3-5-3-0-0-|


Bridge

G|-------------------------------|---------------------------------|
D|-------------------------------|---------------------------------|
A|-------------------------------|---------------------------------|
D|-9-8-7-6-5-7-5-5\2-2-2-5\2-2-2-|-0-2-2-2-5\2-2-2-5\2-2-2-0-2-2-2-|

G|-------------------------------|---------------------------------|
D|-------------------------------|---------------------------------|
A|-------------------------------|---------------------------------|
D|-9-8-7-6-5-7-5-5\2-2-2-5\2-2-2-|-0-2-2-2-5\2-2-2-5\2-2-2-0-2-2-2-|

G|-------------------------------|---------------------------------|
D|-------------------------------|---------------------------------|
A|-------------------------------|---------------------------------|
D|-9-8-7-6-5-7-5-5\2-2-2-5\2-2-2-|-0-2-2-2-5\2-2-2-5\2-2-2-0-2-2-2-|

G|-------------------------------|---------------------------------|
D|-------------------------------|---------------------------------|
A|-------------------------------|---------------------------------|
D|-9-8-7-6-5-7-5-5\2-2-2-5\2-2-2-|-0-2-2-2-5\2-2-2-5\2-2-2-0-2-2-2-|


Post-Chorus

G|---------------------------------|---------------------------------|
D|---------------------------------|---------------------------------|
A|---------------------------------|---------------------------------|
D|-2h4-4-2h4-4-2h4-4-2h4-4-2h4-4-4-|-2h4-4-2h4-4-2h4-4-2h4-4-2h4-4-4-|


Outro

G|--------------------------------------|---------------------------------|
D|--------------------------------------|---------------------------------|
A|--------------------------------------|---------------------------------|
D|-0--0--6-5-3-5-3-0--6-5-3-5-3-0--0--0-|-6-5-3-5--6-5-3-5--6-5-3-5-3-0-0-|

G|--------------------------------------|---------------------------------|
D|--------------------------------------|---------------------------------|
A|--------------------------------------|---------------------------------|
D|-0--0--6-5-3-5-3-0--6-5-3-5-3-0--0--0-|-6-5-3-5--6-5-3-5--6-5-3-5-3-0-0-|

G|------|
D|------|
A|------|
D|-0--0-|
Suggest correction
Creating personal tab
Creating personal tab
You can edit any tab online and save it as your Personal.

You can edit, replace or remove any tab part or add personal notes – all changes will be seen only by you.

Personal tabs can be accessed anytime from any device, even offline.
Learn more »
comments
print report bad tab
guest
You may want to rate the tab now too:
select rating
Wanna post a correction for this tab? Suggest correction