Oops, an error
Loading. Please wait.

Dumb Love bass

version 1
version 1

Whole song

Interactive

669 views 1 this week
1 commentread comment
1 2 3 4 5
1 last vote to show rating
add to favorites
×
Save as Personal and add changes to this tab that will be seen only by you. Learn more ›
×
You can save this tab as Personal to edit and correct it or add notes. All changes will be seen only by you. Learn more »
launch autoscroll
font size
0
reset
guitar tuner
edit
Autoscroll
slow
fast
+/-
esc
set tempo
stop
Dumb Love - Stone Temple Pilots
Album: Shangri La Dee Da
tabbed by Bradley McCherry

Dropped D Tuning

Intro       						      	     2X
G----------------------------------|----------------------------------|
D----------------------------------|----------------------------------|
A----------------------------------|----------------------------------|
D-10b-8--6----8b-6--5----5b---3----|5b-3--0---0-5b-3--0---0-5b---3----|

Verse			  8X
G------------------------|
D------------------------|
A------------------------|
D-00--00--00--0--0-6--6--|

Chorus						    2X
G--------------------------|-------------------------|
D--------------------------|-------------------------|
A--------------------------|-------------------------|
D-3h5-5--35--35--353-6--6--|3h5-5--35--35------------|


Verse				4X
Chorus				2X
Intro				1X

Bridge								  2X
G---------------------------------|--------------------------------|
D---------------------------------|--------------------------------|
A---------------------------------|--------------------------------|
D-6-5-3-0-1-0-6-5-3-0-1-0-1---3---|6-5-3-0-1-0-6-5-3-0-1-0-3---5---|


Solo (Verse Riff)		4X
Chorus				2X
Intro				1X
Bridge				4X

Outro
G------------------------|-------------------|
D------------------------|-------------------|
A------------------------|-------------------|
D-00--00--00--0--0-6--6--|00--00--00---------|


If You Don't Stand For Something... You'll Fall For Anything

            
            
Suggest correction
Creating personal tab
Creating personal tab
You can edit any tab online and save it as your Personal.

You can edit, replace or remove any tab part or add personal notes – all changes will be seen only by you.

Personal tabs can be accessed anytime from any device, even offline.
Learn more »
Give kudos to tab author, rate the tab!
1 2 3 4 5
comments
print report bad tab
1 comment total.
0 reply
jjhand 17,480 Mar 05, 2009 05:01 AM

The bridge doesn't play 1st fret on the low D string. It is actually:
D|-6-5-3-0---0-6-5-3-0---0-6-5-3-|
just repeat that

4 stars

guest
You may want to rate the tab now too:
select rating
Wanna post a correction for this tab? Suggest correction