Oops, an error
Loading. Please wait.

Huckleberry Crumble bass

981 views 1 this week
2 commentsread comments
1 2 3 4 5
x 3
add to favorites
×
Save as Personal and add changes to this tab that will be seen only by you. Learn more ›
×
You can save this tab as Personal to edit and correct it or add notes. All changes will be seen only by you. Learn more »
launch autoscroll
font size
0
reset
guitar tuner
backing track
0:00
0:00
edit
Autoscroll
slow
fast
+/-
esc
set tempo
stop
Author
Difficulty
STP - "Huckleberry Crumble"
From "Stone Temple Pilots" Album (2010)
Standard Bass tuning with fat Low EQ setting
tabbed by jjhand


Intro (0:07)
G|------------------|----------------------|-----------------------|
D|------------------|----------------------|-----------------------|
A|-7/10---9-10------|-5----7----7--5--7--5-|-7----7----7--5--7--5--|
E|------------------|----------------------|-----------------------|

G|----------------------|-------------------|
D|----------------------|-------------------|
A|-7----7----7--5--7--7-|-10---10-9-10---10-|
E|----------------------|-------------------|



Verse
G|----------------------|-----------------------|----------------------|
D|----------------------|-----------------------|----------------------|
A|-5----7----7--5--7--5-|-7----7----7--5--7--5--|-7----7----7--5--7----|
E|----------------------|-----------------------|--------------------2-|
"Less conversation, moral obligations,  tell me how you feeling tonight"

G|-----------------|----------------------|-----------------------|
D|-----------------|----------------------|-----------------------|
A|-----------------|-5----7----7--5--7--5-|-7----7----7--5--7--5--|
E|-3-----2-3-----3-|----------------------|-----------------------|
 "(right)           Mind's over-racin', fear she got me shaking"

G|----------------------|-------------------|---------------------|
D|----------------------|-------------------|---------------------|
A|-7----7----7--5--7--7-|-10---10-9-10---10-|-10---9-10-----------|
E|----------------------|-------------------|---------------------|
"Motor state's changin your mind     (mind, mind, mind)"





PreChorus
G|--------------------|--------------------|--------------------|
D|--------------------|--------------------|--------------------|
A|-7------------------|-rest---------------|-rest---------------|
E|----------0----0----|----------3----3----|----------5----5----|

 "I see whats at the endin' of the rat trap"
 "Lady jabberwockies eating bed bugs"
 "The rabbit dug a hole stright thru to China"


G|-------------------|--------------------|
D|-------------------|--------------------|
A|-------------------|--------------------|
E|----------0--------|-(0)------0---12\---|
"So where do we go? and where does the rabbit go?"






Chorus
G|------------------|-----------------------|------------------|
D|------------------|-----------------------|------------------|
A|------------------|-------7----7--5-----5-|------------------|
E|-5p0--5p0--3p0--3-|-0---0------------7----|-5p0--5p0--3p0--3-|
 "I feel like I'm pulling away"   etc


G|----------------------|------------------|------------------------|
D|----------------------|------------------|------------------------|
A|-----------0--2--5----|------------------|-------7----7--5-----5--|
E|-0---0-3p0----------3-|-5p0--5p0--3p0--3-|-0---0------------7-----|



G|------------------|-----------------------|------------------------|
D|------------------|----------/14----12-11-|------------------------|
A|------------------|--------------14-------|-14-10-11-12--7--5------|
E|-5p0--5p0--3p0--3-|-0---0-0---------------|--------------------7---|



Play Intro again - starting with 2nd bar


Play Verse Again - 8 bars


Play Prechorus Again


Play Chorus Again but cut the ending short for the bridge



Bridge (1:58)
G|--------------------|---------------------|-------------------------|
D|--------------7--9--|-7----7----7-7-------|-------------------------|
A|----------/9--------|---------------9--10-|-(10)---10---10-10----10-|
E|-7----7-------------|---------------------|-------------------10----|


G|--------------------|------------------|------------------------|
D|--------------------|-------------7-9--|-7----7------99---7-----|
A|-(10)---10---10-9p7-|----------/9------|-----------9----9----10-|
E|--------------------|-7----7-----------|------------------------|


G|-------------------------|---------------------|------------------|
D|-------------------------|---------------------|--------------7-9-|
A|-(10)---10---10-10----10-|-(10)---10---0h4-5-6-|----------/9------|
E|-------------------10----|---------------------|-7----7-----------|


G|-----------------------|------------------|-12---12----12-10-----|
D|-7----7-------9-----7--|---------/12---12-|---------12-------12\-|
A|-----------9-----9-----|-10---10----------|----------------------|
E|-----------------------|------------------|----------------------|


G|-------------------|-------------------|---------------------|
D|---------------7-9-|-7----7-----9-/9---|---------------------|
A|-----------/9------|----------9------9-|-10---10-9-10---10-9-|
E|-7----7------------|-------------------|---------------------|


G|---------------------------|
D|---------14--12------------|
A|-10---/14--14--14-13-12-10-|
E|---------------------------|


Solo
G|----------------------|-----------------------|----------------------|
D|----------------------|-----------------------|----------------------|
A|-5----7----7--5--7--5-|-7----7----7--5--7--5--|-7----7----7--5--7--7-|
E|----------------------|-----------------------|----------------------|


G|-------------------|----------------------|-----------------------|
D|-------------------|----------------------|-----------------------|
A|-10---10-9-10---10-|-5----7----7--5--7--5-|-7----7----7--5--7--5--|
E|-------------------|----------------------|-----------------------|


G|----------------------|---------------|------------------|
D|----------------------|---------------|------------------|
A|-7----7----7--5--7----|---------------|-------------10\--|
E|--------------------0-|-3----2-3----2-|-3----2-3---------|





Play Chorus, but last bars change-

Final Chorus Ending:
G|------------------|----------------------|-----------------------|
D|------------------|----------------------|-----------------------|
A|------------------|------7----7--5-----5-|-5----7----7--5-----5--|
E|-5p0--5p0--3p0--3-|-0---------------7----|-----------------7-----|
  "I feel like I'm sinkin in, I'm movin in  I feel like I'm pulling...         


Song Ending
G|-------------------|-----------|-----------|
D|-------------------|-----------|-----------|
A|---7---5-4-2-------|-----------|-----------|
E|-7---7-------3-4-5-|-0----0----|-0---------|
 "I see whats at the endin' of the rat trap"



KEY
| /  slide up
| \  slide down
| h  hammer-on
| p  pull-off
| () held note from previous bar

            
            
Suggest correction
Creating personal tab
Creating personal tab
You can edit any tab online and save it as your Personal.

You can edit, replace or remove any tab part or add personal notes – all changes will be seen only by you.

Personal tabs can be accessed anytime from any device, even offline.
Learn more »
Give kudos to tab author, rate the tab!
1 2 3 4 5
comments
print report bad tab
2 comments total.
+1 reply
chronic_stp 341 Jul 02, 2010 04:03 PM

AWESOME!!! Two more suggestions: and so i know and sin. i am applying for music college and i need these tracks to complete my audition videos! thanks again

+1 reply
Garageking1479 379 Jan 10, 2011 03:07 PM

awesome!! this tab is perfect

guest
You may want to rate the tab now too:
select rating
Wanna post a correction for this tab? Suggest correction