Oops, an error
Loading. Please wait.
We have an official Interstate Love Song tab made by UG professional guitarists. Check out the tab »
×
335,409 views 999 this week
6 commentsread comments
1 2 3 4 5
x 84
add to favorites
launch autoscroll
font size
0
reset
transpose
0
reset
simplify chords
display chords
guitar tuner
backing track
0:00
0:00
×
Best way to learn
"Interstate Love Song"
Autoscroll
slow
fast
+/-
esc
set tempo
stop
Author
Difficulty
  follow
intermediate
Song: Interstate Love Song
Artist: Stone Temple Pilots


[Intro]

C#m7 (x42100)
E
Asus2 (x02200)
G#sus4 (xx1124) - G# -
A
E


e|---0-0---0---0-------0-|  
B|-2/3-3/2-0---------0---|   
G|-----------2---1/2-----|   
D|-----------------------|   
A|-----------------------|   
E|-----------------------|   
                             
E                         
F#m11/E (022222) - E      


e|---0-0---0---0-------0-|  
B|-2/3-3/2-0---------0---|   
G|-----------2---1/2-----|   
D|-----------------------|   
A|-----------------------|   
E|-----------------------|   
                             
E                         
F#m11/E (022222) - E     


[Verse]

C#m7         G#/C
Waiting on a Sunday afternoon
    C#7/B (x2342x)               A#m7b5 (x1x120)
for what I read between the lines
            A5 -
your lies.


[Instrumental]

E -- F#m11/E -- E -
F#m11/E - E -


[Verse]

C#m7           G#/C
Feelin' like a hand in rusted chain
   C#7/B                        A#m7b5
so do you laugh, or does it cry?
       A5 -
Reply?


[Instrumental]

E -- F#m11/E -- E -
F#m11/E - E -

e|---0-0---0---0-------0-|  
B|-2/3-3/2-0---------0---|   
G|-----------2---1/2-----|   
D|-----------------------|   
A|-----------------------|   
E|-----------------------| 


[Chorus]

C#m7         E
leavin' on a southern train
     Asus2          G#sus4 - G# -
only yesterday, you lied,
A                  E
promises of what i seemed to be
     A                   G#sus4 - G# -- G#7 --
only watched the time go by,
A                   E
all of these things you said to me.


e|---0-0---0---0-------0-|  
B|-2/3-3/2-0---------0---|   
G|-----------2---1/2-----|   
D|-----------------------|   
A|-----------------------|   
E|-----------------------| 


[Verse]

C#m7              G#/C
breathing, is the hardest thing to do
     C#7/B                             A#m7b5
with all I've said and all that's dead for you.
         A5 - F#m11/E - E -
You Lied -
         A5
Good bye


[Instrumental]

E -- F#m11/E -- E -
F#m11/E - E -


[Chorus]

C#m7         E
leavin' on a southern train
     Asus2          G#sus4 - G# -
only yesterday, you lied,
A                  E
promises of what i seemed to be
     A                   G#sus4 - G# -- G#7 --
only watched the time go by,
A                   E
all of these things I said to you.


[Outro]

e|---0-0---0---0-------0-|  
B|-2/3-3/2-0---------0---|   
G|-----------2---1/2-----|   
D|-----------------------|   
A|-----------------------|   
E|-----------------------| 
                         
E                         
F#m11/E (022222) 


***********************************
| /   Slide up
***********************************         
Suggest correction
comments
print report bad tab
6 comments total. Showing first comments.
-2 reply
GravOLantern 10 Apr 29, 2014 03:32 PM

The end of the verse should be an Asus2 by my ear. Also the A#m7b5 can be a Bb half diminished, it's the same chord, but I believe Ultimate-guitar should have a drop menu with the pdf of the chord chart to help out less experienced players.

0 reply
catapult90 57 Jan 10, 2016 06:18 AM

how the hell does anyone change chords fast enough to play this?

0 reply
michael.boggs.1 10 Aug 30, 2016 11:36 PM

F#m11/E is just Esus.

guest
You may want to rate the tab now too:
select rating
Wanna post a correction for this tab? Suggest correction