Oops, an error
Loading. Please wait.
We have an official Interstate Love Song tab made by UG professional guitarists. Check out the tab »
×

Interstate Love Song Acoustic chords

32,977 views 327 this week
1 commentread comment
1 2 3 4 5
x 64
add to favorites
×
Save as Personal and add changes to this tab that will be seen only by you. Learn more ›
×
You can save this tab as Personal to edit and correct it or add notes. All changes will be seen only by you. Learn more »
launch autoscroll
font size
0
reset
transpose
0
reset
simplify chords
display chords
guitar tuner
backing track
0:00
0:00
edit
Autoscroll
slow
fast
+/-
esc
set tempo
stop
Author
Difficulty
intermediate
Strumming
There is no strumming pattern for this song yet. and get +5 IQ
Standard Tuning EADGBe 

RIP Scott


F#m/C# - x442xx

[Intro]

e|--------------------------------------------0---|
B|-----------------------------------4h5p4/2--0---|
G|-4h6--4--4h6p4------------------5-----------1---|
D|----------------6--2h4p2--4/6---------------2---|
A|--------------------------------------------2---|
E|--------------------------------------------0---|                                            
                                        
e|--0-0-0-0--0-----------0-----------------------------------|
B|--2/3-3/2--0---------0-------------------------------------|
G|--------------2-1h2--------1-2-1--1-1-1-1---1-2-1--1-1-1-1-|
D|---------------------------2-4-2--2-2-2-2---2-4-2--2-2-2-2-|
A|---------------------------2-4-2--2-2-2-2---2-4-2--2-2-2-2-|
E|---------------------------0---0--0-0-0-0---0---0--0-0-0-0-|
                          
    
Verse 1:

C#m          G#                    B                       A#          A   E  F#m/C#  E
Waiting on a Sunday afternoon, for what I read between the lines, your lies...
C#m            G#                       B                        A#    A   E  F#m/C#  E
Feelin' like a hand in rusted chain, so do you laugh, or does it cry? Reply?


Chorus 1:

C#m7         E                   Asus2          G#
Leavin' on a southern train only yesterday, you lied,
A                  E                             Asus2    G#     
Promises of what I seemed to be only watched the time, go by,
A                        E
All of these, things you said to me...


Verse 2:

C#m              G#                        B                            A#            A  E  F#m/C#  E
Breathing is the hardest thing to do, with all I've said and all that's dead for you, you lied...
     A   E  F#m/C#  E
Goodbye...


Chorus 2: 

C#m7         E                   Asus2          G#
Leavin' on a southern train only yesterday, you lied,
A                  E                             Asus2    G#     
Promises of what I seemed to be only watched the time, go by,
A                      E
All of these, things I said to you...



(end)

            
            
Suggest correction
Creating personal tab
Creating personal tab
You can edit any tab online and save it as your Personal.

You can edit, replace or remove any tab part or add personal notes – all changes will be seen only by you.

Personal tabs can be accessed anytime from any device, even offline.
Learn more »
comments
print report bad tab
1 comment total.
0 reply
jtnix 21 Mar 11, 2016 01:27 PM

Not bad, but the first one in the list of chords is the best one here, even for acoustic (12 string is best)

guest
You may want to rate the tab now too:
select rating
Wanna post a correction for this tab? Suggest correction