Oops, an error
Loading. Please wait.
We have an official Interstate Love Song tab made by UG professional guitarists. Check out the tab »
×

Interstate Love Song chords

409 views 18 this week
no commentswrite comment
1 2 3 4 5
2 more votes to show rating
add to favorites
×
Save as Personal and add changes to this tab that will be seen only by you. Learn more ›
×
You can save this tab as Personal to edit and correct it or add notes. All changes will be seen only by you. Learn more »
launch autoscroll
font size
0
reset
transpose
0
reset
simplify chords
display chords
guitar tuner
backing track
0:00
0:00
edit
Autoscroll
slow
fast
+/-
esc
set tempo
stop
About this tab version
The correct chords for the acoustic version. Was this info helpful? Yes No
Strumming
There is no strumming pattern for this song yet. and get +5 IQ
[Chords]
C#m     x46654
G#maj   x3111x
Fdim    x2310x
A#m7b5  x1212x
Asus2   x02200
E       022100
A6add9  044200
G#sus4  466644
G#7     464574

[Pre-verse riff]
e|-0---0---0-------0-------0-------------------------------|
B|-2b3-2---0-------------0---------------------------------|
G|-------------2-----1h2-----1-1--2-2-1---------1-1--2-2-1-|
D|---------------------------2-2--4-4-2---------2-2--4-4-2-|
A|---------------------------2-2--4-4-2---------2-2--4-4-2-|
E|---------------------------------------------------------|

[Verse 1]
C#m          G#maj                 Fdim                    A#m7b5      Asus2 E  A6add9  E
Waiting on a Sunday afternoon, for what I read between the lines, your lies...
C#m          G#maj                 Fdim                    A#m7b5      Asus2 E  A6add9  E
Feelin' like a hand in rusted shame, so do you laugh, or does it cry? Reply?

[Chorus]
C#m         E                   Asus2          G#sus4 G#7
Leavin' on a southern train only yesterday, you lied,
A                  E                             Asus2    G#sus4 G#7     
Promises of what I seemed to be only watched the time, go by,
A                        E
All of these, things you said to me...

[Verse 2]
C#m          G#maj                 Fdim                    A#m7b5      Asus2 E  A6add9  E
Breathing is the hardest thing to do, with all I've said and all that's dead for you, you lied...
     A   E  A6add9  E
Goodbye...

[Pre-verse riff]
e|-0---0---0-------0-------0-------------------------------|
B|-2b3-2---0-------------0---------------------------------|
G|-------------2-----1h2-----1-1--2-2-1---------1-1--2-2-1-|
D|---------------------------2-2--4-4-2---------2-2--4-4-2-|
A|---------------------------2-2--4-4-2---------2-2--4-4-2-|
E|---------------------------------------------------------|

[Chorus]
C#m         E                   Asus2          G#sus4  G#7
Leavin' on a southern train only yesterday, you lied,
A                  E                             Asus2    G#sus4  G#7     
Promises of what I seemed to be only watched the time, go by,
A                      E
All of these, things I said to you...
Suggest correction
Creating personal tab
Creating personal tab
You can edit any tab online and save it as your Personal.

You can edit, replace or remove any tab part or add personal notes – all changes will be seen only by you.

Personal tabs can be accessed anytime from any device, even offline.
Learn more »
Give kudos to tab author, rate the tab!
1 2 3 4 5
comments
print report bad tab
guest
You may want to rate the tab now too:
select rating
Wanna post a correction for this tab? Suggest correction