Oops, an error
Loading. Please wait.

Kitchenware And Candybars bass

version 2
version 2

Whole song

Interactive

88 views 3 this week
no commentswrite comment
1 2 3 4 5
3 more votes to show rating
add to favorites
×
Save as Personal and add changes to this tab that will be seen only by you. Learn more ›
×
You can save this tab as Personal to edit and correct it or add notes. All changes will be seen only by you. Learn more »
launch autoscroll
font size
0
reset
guitar tuner
edit
Autoscroll
slow
fast
+/-
esc
set tempo
stop
Author
Difficulty
Kitchenware and Candybars- Stone Temple Pilots

Verse 1: No bass

Chorus 1:

G|---------------------------------------------------------------------------|
D|---------------------------------------------------------------------------|
A|--3--3------------5--3------------5--3------------5--3------------5--------|
E|----------3--2------------3--2------------3--2------------3--2-------------|


Verse 2:

G|---------------------------------------------------------------------------|
D|---------------------------------------------------------------------------|
A|---------------------5---------------------5-------------------------------|
E|--0-0----0-0----0-0-----0-0----0-0----0-0----------------------------------| x5


Chorus 2:

G|---------------------------------------------------------------------------|
D|---------------------------------------------------------------------------|
A|--3--3------------5--3------------5--3------------5--3------------5--------|
E|----------3--2------------3--2------------3--2------------3--2-------------|

Bridge:

G|---------------------------------------------------------------------------|
D|---------------------------------------------------------------------------|
A|--3------------------------------------------------------------------------|
E|-----------3--2--0--1--------3--2--0--1--------3--2--0--1------------------|

G|---------------------------------------------------------------------------|
D|---------------------------------------------------------------------------|
A|---------------------------------------------------------------------------|
E|--3--2--0--1--------3--2--0--1--------3--2--0--1~--------------------------|

Verse 3:

G|---------------------------------------------------------------------------|
D|---------------------------------------------------------------------------|
A|---------------------5---------------------5-------------------------------|
E|--0-0----0-0----0-0-----0-0----0-0----0-0----------------------------------| x4

Chorus 3:

G|---------------------------------------------------------------------------|
D|---------------------------------------------------------------------------|
A|--3--3------------5--3------------5--3------------5--3------------5--------|
E|----------3--2------------3--2------------3--2------------3--2-------------|

Instrumental break:

G|---------------------------------------------------------------------------|
D|---------------------------------------------------------------------------|
A|-------------------------5-------------------------5-----------------------|
E|--0-0----0-0----0-0-0-0-----0-0----0-0----0-0-0-0--------------------------| x4

Chorus 4/ End:

G|---------------------------------------------------------------------------|
D|---------------------------------------------------------------------------|
A|--3--3------------5--3------------5--3------------5--3---------------------|
E|----------3--2------------3--2------------3--2------------3--2--0--1~------|

The tilde ~ means hold the note.

The bridge part was a little difficult to figure out; what I have sounds accurate,
though it could be different. I know the last one before the second verse is correct however.

                             Lyrics:
Verse 1:
Somebody told me, I know where to go.
Somebody showed me, I was last to know.

Sell me down the river x4

Chorus:
What I wanted, is what I wanted
What I wanted is what she wanted.

Verse 2
Unfriendly feeling, down on wounded knees
Unfriendly reasons, some blind mothers need

Sell me down the river x4

[Chorus]

Bridge:
You read the words and it sells you life
They sell their words, but it's all a lie.

[Verse 1]

[Chorus]

-Instrumental break-

Final Chorus:
What I wanted, is what I wanted
What we wanted, is what she wanted.


            
            
Suggest correction
Creating personal tab
Creating personal tab
You can edit any tab online and save it as your Personal.

You can edit, replace or remove any tab part or add personal notes – all changes will be seen only by you.

Personal tabs can be accessed anytime from any device, even offline.
Learn more »
Give kudos to tab author, rate the tab!
1 2 3 4 5
comments
print report bad tab
guest
You may want to rate the tab now too:
select rating
Wanna post a correction for this tab? Suggest correction