Oops, an error
Loading. Please wait.

Meat Plow bass

2,849 views 6 this week
2 commentsread comments
1 2 3 4 5
x 4
add to favorites
×
Save as Personal and add changes to this tab that will be seen only by you. Learn more ›
×
You can save this tab as Personal to edit and correct it or add notes. All changes will be seen only by you. Learn more »
launch autoscroll
font size
0
reset
guitar tuner
edit
Autoscroll
slow
fast
+/-
esc
set tempo
stop
Song Title: meat plow
Artist: stone temple pilots
----------------------------------------------

My version of STP's meat plow
hope you like it
hope you play

Meat Plow

verse, intro, and solo

a-----0-3-------------------------
e-0-3-----22-0-22-202-------------


bridge...they've got these pictures of everything
a-22-22-33333------------------------------
e------------1-01-0101-1-01-0101-----------


chorus

a-5-------3---------------1--3------------
e--55-5-5--55-5-5-13-33-33-1--3-----------


enjoy it, its actually pretty easy to play, so if you are having trouble
guess it sucks to be you!!!!!!!!!!!!!!!!!!!!!!

Submitted by:  The Wolf 

            
            
Suggest correction
Creating personal tab
Creating personal tab
You can edit any tab online and save it as your Personal.

You can edit, replace or remove any tab part or add personal notes – all changes will be seen only by you.

Personal tabs can be accessed anytime from any device, even offline.
Learn more »
comments
print report bad tab
2 comments total.
0 reply
Ziggyness 10 Sep 20, 2009 09:54 PM

a-5-------3---------------1--3------------
e--55-5-5--55-5-5-13-33-33-1--3-----------

I think should be

a-5-------3---------------1--3------------
e--55-5-5--55-5-5-13-33-33-2--4-----------

0 reply
Ziggyness 10 Sep 20, 2009 09:54 PM

Other than that, not bad. Thanks for the tab.

guest
Wanna post a correction for this tab? Suggest correction