Oops, an error
Loading. Please wait.

No Memory Bass

version 1
version 1

Whole song

Interactive

783 views 1 this week
1 commentread comment
1 2 3 4 5
x 3
add to favorites
launch autoscroll
font size
0
reset
guitar tuner
×
Best way to learn
"No Memory"
Autoscroll
slow
fast
+/-
esc
set tempo
stop
Author
================================================================
                  No Memory - Stone Temple Pilots
================================================================
                 As recorded by Stone Temple Pilots
                    (From the 1992 Album Core)

Words and Music by Stone Temple Pilots


Tuning: (E A D G) - 'Bass Standard Tuning'


Legend:
/ - Slide

The guitar plays its main riff three times without bass, then the bass comes in
and plays this:

G--2------2-----2--|--0-------0--------|------------------|------------------|
D------------2-----|-------------2--0--|--4------5--4--0--|---------------5--|
A------------------|-------------------|------------------|------------5-----|
E------------------|-------------------|------------------|--3------3--------|

       
G------------------|----------------|----------------|---------------|
D--3------3--------|----------------|----------------|---------------|
A------------3-----|--1--------/----|--7-------------|---------------|
E---------------1--|----------------|----------------|---------------|
                            (Slide)


G--2------2-----2--|--0-------0--------|------------------|------------------|
D------------2-----|-------------2--0--|--4------5--4--0--|---------------5--|
A------------------|-------------------|------------------|------------5-----|
E------------------|-------------------|------------------|--3------3--------|


G------------------|----------------|----------------|----------------|
D--3------3--------|----------------|----------------|----------------|
A------------3-----|--1--------/----|--7-------------|----------------|
E---------------1--|----------------|--0-------------|----------------|
                           (slide)

Extra info: This song is played an a fretless bass. That is how it gets its
distinctive sound in the background. However, this can be played on a normal bass as well
and still sounds good.
Suggest correction
Give kudos to tab author, rate the tab!
1 2 3 4 5
comments
print report bad tab
1 comment total.
0 reply
chronic_stp 341 Jul 30, 2010 10:55 AM

sounds great! im missing my G string, but still sounds fantastic when i hit the seventh fret on D instead of second fret on G.

guest
You may want to rate the tab now too:
select rating
Wanna post a correction for this tab? Suggest correction