Oops, an error
Loading. Please wait.

Plush Bass Tab

version 2
version 2

Whole song

Interactive

27,517 views 42 this week
1 commentread comment
1 2 3 4 5
excellent!
x 4
add to favorites
launch autoscroll
font size
0
reset
guitar tuner
Tab Pro tools
  • play this tab
  • loop segment
  • change instrument
  • show fretboard
  • metronome
×
Best way to learn
"Plush"
Autoscroll
slow
fast
+/-
esc
set tempo
stop
Contributor
Tabbed By : jaronthebassist

                                  Plush                                    


                                                        Stone Temple Pilots
Bass



     E  E  E  E.  S S S S S S S    E  E  E  E.  S S S S S E   
G||-----------------------------|----------------------------|
D||-----------------------------|----------------------------|
A||-----------1---1-1-1-1---1-2-|--3--3---------------1-3-4--|
E||--3--3-----------------3-----|-----------3---3-3-3--------|


  S S E  E  E.  S S S S S S S    E  S S E  E.  S S S S S E   
------------------------------|-----------------------------|
------------------------------|-----------------------------|
--5-5-------1---1-1-1-1---1-2-|--3--3-3--------------1-3-4--|
------3-----------------3-----|------------3---3-3-3--------|


  E  E  E  E.  S E  S S E     E  E  E  E.  S S S S S E   
---------------------------|----------------------------|
---------------------------|----------------------------|
--5--------1---1-1----1-2--|--3--3---------------1-3-4--|
-----3--------------3------|-----------3---3-3-3--------|


  E  E  E  E.  S E  S S S S    E  E  E  E     W                 
----------------------------|--------------|-------------------|
----------------------------|--------------|-------------------|
--5--------1---1-1------1-2-|--3--3--------|-------------------|
-----3----------------3-----|-----------3--|--L----------------|


  E  E  E  S S E  E  E  S S    E  E  E  S S E  E  E  S S  
----------------------------|----------------------------|
-------------5-4----------2-|--3--3-------3-2------------|
------------------5---------|------------------3-------5-|
--3--3----------------------|----------------------------|


  E  E  E  S S S E  Q    S    E  E  E  S S E  E  E  S S  
---------------------------|----------------------------|
---------------1-1--3----L-|-------------5-4----------2-|
--6--6-------1-------------|------------------5---------|
---------------------------|--3--3----------------------|


  E  E  E  S S E  S S E  S S    E  S S E  S S S E  Q    S  
-----------------------------|----------------------------|
--3--3-------3-2-------------|----------------1-1--3----L-|
------------------3-3------5-|--6--6-6------1-------------|
-----------------------------|----------------------------|


  E  S S E.  E.  E.  S S S    E  S S E.  E  S E  S S S S  
---------------------------|-----------------------------|
---------------------0-2-4-|-----------------------------|
--5--5-5-3---2---3---------|--5--5-5-3---2--5----0-2-3-0-|
---------------------------|------------------3----------|


  E  S S E.  E.  E.  S S S    E  S S E  S E.  E.  S S S  
---------------------------|----------------------------|
---------------------0-2-4-|------------------------0-0-|
--5--5-5-3---2---3---------|--5--5-5-3--3-2---3---3-----|
---------------------------|----------------------------|


  E  E  E  S S S Q    S S S    E  E  E  S S S E  S S S S S  
------------------------5-3-|--2---------------------0-----|
--1--1---------1-1----L-----|-----3---------3-3----3---2-1-|
-------------1--------------|-------------3------3---------|
----------------------------|------------------------------|


  E  S S E  S S S E  S S S S S    E  E  E  S S S E  S S S S S  
---------------------------5-3-|--2---------------------0-----|
--1--1-1--------1-1----1-3-----|-----3---------3-3----3---2-1-|
--------------1------1---------|-------------3------3---------|
-------------------------------|------------------------------|


  S S S S E  S S S E  S S S S S    E  E  E  S S S E  S S S E   
----------------------------5-3-|--2--------------------------|
--1-1-1-1--------1-1----1-3-----|-----3---------3-3----3-3-2--|
---------------1------1---------|-------------3------3--------|
--------------------------------|-----------------------------|


  E  E  E  S S S E  S S S S S    E  E  E  S S S E  S S S E   
--------------------------5-3-|--2--------------------------|
--1--1---------1-1----1-1-----|-----3---------3-3----3-3----|
-------------1------1---------|-------------3------3-----3--|
------------------------------|-----------------------------|


  S S S S E  E.  S E.  S S S    E  E  E  E.  S S S S S E   
-----------------------------|----------------------------|
-----------------------------|----------------------------|
-------------1---1-1-----1-2-|--3--3---------------1-3-4--|
--3-3-3-3--------------3-----|-----------3---3-3-3--------|


  E  E  E  E.  S S S S S S S    E  E  E  E     W                 
-----------------------------|--------------|-------------------|
-----------------------------|--------------|-------------------|
--5--------1---1-1-1-1---1-2-|--3--3--------|-------------------|
-----3-----------------3-----|-----------3--|--L----------------|


  E  E  E  S S E  E  E  S S    E  E  E  S S S S E  E  S S  
----------------------------|-----------------------------|
--5--5-------5-4----------2-|--3--3-------3-2-2-----------|
------------------5---------|-------------------3-------5-|
----------------------------|-----------------------------|


  E  E  E  S S S E  S Q       S S E  E  S S E  E  E  S S  
---------------------------|-----------------------------|
---------------1-1--1-3----|--------------5-4----------2-|
--6--6-------1-------------|-------------------5---------|
---------------------------|--3-3-3----------------------|


  E  E  E  S S E  S S E  S S    E  E  E  S S S E  S S E.   
-----------------------------|----------------------------|
--3--3-------3-2-------------|---------------1-1--1-3-3---|
------------------3-3------5-|--6--6-------1--------------|
-----------------------------|----------------------------|


  E  S S E.  E.  E.  S S S    E  S S E  S E  S E  S S S S  
---------------------------|------------------------------|
---------------------0-2-4-|------------------------------|
--5--5-5-3---2---3---------|--5--5-5-3--3-2--5----0-2-3-0-|
---------------------------|-------------------3----------|


  E  S S E.  E.  E.  S S S    E  S S E.  E.  E.  S S S  
---------------------------|---------------------------|
---------------------0-2-4-|-----------------------0-0-|
--5--5-5-3---2---3---------|--5--5-5-3---2---3---3-----|
---------------------------|---------------------------|


    E  S S E  S S S E  S S S S S    E  E  E  S S S E  S S S S S  3x
|----------------------------5-3-|--2---------------------0------||
|*--1--1-1--------1-1----1-1-----|-----3---------3-3----3---2-1-*||
|*--------------1------1---------|-------------3------3---------*||
|--------------------------------|-------------------------------||


  E  E  E  S S S E  S S S S S    E  E  E  S S S S S S S S E   
--------------------------5-3-|--2---------------------------|
--1--1---------1-1----1-1-----|-----3---------3-3---3-3-3----|
-------------1------1---------|-------------3-----3-------3--|
------------------------------|------------------------------|


    S S S S E  S S E  S S S E.     S S S S E  S S S S S S S S S S    
|-------------------------------|----------------------------------||
|*------------------------------|---------------------------------*||
|*------------------------------|---------------5-6-6-6-6-5-5-5-5-*||
|---3-3-3-3------3-1--1-1---1---|--0-0-0-0-------------------------||


  S S S S E  S S E  S S S E.     S S S S E  S S S S S S S S E   
------------------------------|-------------------8-8-8-7-7-7--|
------------------------------|--------------------------------|
------------------------------|---------------5-6--------------|
--3-3-3-3------3-1--1-1---1---|--0-0-0-0-----------------------|


  S S S S E  S S E  S S S E.     S S S S E  S S Q    Q     
------------------------------|---------------------------|
------------------------------|---------------------------|
------------------------------|---------------5-6----5----|
--3-3-3-3------3-1--1-1---1---|--0-0-0-0------------------|


  E  E  E  E.  S S S S S S S    E  E  E  E.  S E  S S E   
-----------------------------|---------------------------|
-----------------------------|---------------------------|
-----------1---1-1-1-1---1-2-|--3--3--------------1-3-4--|
--3--3-----------------3-----|-----------3---3-3---------|


  E  E  E  E.  S E.  S S S    E  E  E  E.  S S S S S E   
---------------------------|----------------------------|
---------------------------|----------------------------|
--5--------1---1-1-----1-2-|--3--3---------------1-3-4--|
-----3---------------3-----|-----------3---3-3-3--------|


  E  E  E  E.  S E.  S S S    E  E  E  Q    S S S S E   
---------------------------|---------------------------|
---------------------------|---------------------------|
--5--------1---1-1-----1-2-|--3--3--------------1-3-4--|
-----3---------------3-----|-----------3----3-3--------|


  E  E  E  E.  S E.  S S S    S S Q    E     W                 
---------------------------|--------------|-------------------|
---------------------------|--------------|-------------------|
--5--------1---1-1-----1-2-|--3-3---------|-------------------|
-----3---------------3-----|-----------3--|--L----------------|


  E  E  E  S S S E  S S S S S    E  E  E  S S S E  S S S E   
--------------------------5-3-|--2--------------------------|
--1--1---------1-1----1-3-----|-----3---------3-3----3-3-2--|
-------------1------1---------|-------------3------3--------|
------------------------------|-----------------------------|


  E  E  E  S S S E  S S S S S    E  S S E  S S S E  S S S S S  
--------------------------5-3-|--2----------------------0-----|
--1--1---------1-1----1-3-----|-----3-3--------3-3----3---2-1-|
-------------1------1---------|--------------3------3---------|
------------------------------|-------------------------------|


  E  E  E  S S S E  S S S S S    E  E  E  S S S E  S S S E   
--------------------------5-3-|--2--------------------------|
--1--1---------1-1----1-3-----|-----3---------3-3----3-3-2--|
-------------1------1---------|-------------3------3--------|
------------------------------|-----------------------------|


  E  E  E  S S S E  S S S S S    E  S S E  S S S S S S S S E   
--------------------------5-3-|--2----------------------------|
--1--1---------1-1----1-3-----|-----3-3--------3-3---3-3-3----|
-------------1------1---------|--------------3-----3-------3--|
------------------------------|-------------------------------|


  S S S S E  S S E  S S S E.     S S S S E  S S S S S S S S E   
------------------------------|-------------------8-8-8-7-7-7--|
------------------------------|--------------------------------|
------------------------------|---------------5-6--------------|
--3-3-3-3------3-1--1-1---1---|--0-0-0-0-----------------------|


  S S S S E  S S E  S S S E.     S S S S E  S S S S S S S S S S  
------------------------------|---------------------------------|
------------------------------|---------------------------------|
------------------------------|---------------5-6-6-6-6-5-5-5-5-|
--3-3-3-3------3-1--1-1---1---|--0-0-0-0------------------------|


  S S S S E  S S E  S S S E.     S S S S E  S S S S S S S S E   
------------------------------|-------------------8-8-8-7-7-7--|
------------------------------|--------------------------------|
------------------------------|---------------5-6--------------|
--3-3-3-3------3-1--1-1---1---|--0-0-0-0-----------------------|


  S S S S E  S S E  S S S E.     S S S S E  S S Q    Q     
------------------------------|---------------------------|
------------------------------|---------------------------|
------------------------------|---------------5-6----5----|
--3-3-3-3------3-1--1-1---1---|--0-0-0-0------------------|


  E  E  E  Q    E.  S S S    E  E  E  Q    S S S S E   
--------------------------|---------------------------|
--------------------------|---------------------------|
-----------1----1-----1-2-|--3--3--------------1-3-4--|
--3--3--------------3-----|-----------3----3-3--------|


  E  S S E  E.  S E.  S S S    E  E  E  E.  S S S S S E   
----------------------------|----------------------------|
----------------------------|----------------------------|
--5---------1---1-1-----1-2-|--3--3---------------1-3-4--|
-----3-3--------------3-----|-----------3---3-3-3--------|


  E  E  E  E.  S E.  S S S    E  E  E  E.  S S S S S E   
---------------------------|----------------------------|
---------------------------|----------------------------|
--5--------1---1-1-----1-2-|--3--3---------------1-3-4--|
-----3---------------3-----|-----------3---3-3-3--------|


  E  E  E  Q    E.  S S S    E  E  E  E     W                 
--------------------------|--------------|-------------------|
--------------------------|--------------|-------------------|
--5--------1----1-----1-2-|--3--3--------|-------------------|
-----3--------------3-----|-----------3--|--L----------------|


  W                                      
-------------------|-------------------||
-------------------|-------------------||
-------------------|-------------------||
-------------------|-------------------||




Duration Legend
---------------
W - whole
H - half
Q - quarter
E - 8th
S - 16th
T - 32nd
X - 64th
. - note dotted
|-n-|  - n-tuplets


Tablature Legend
----------------
L - tied note
x - dead note
g - grace note
(n) - ghost note
> - accentuded note
NH - natural harmonic
AH - artificial harmonic
TH - tapped harmonic
SH - semi harmonic
PH - pitch harmonic
h - hammer on
p - pull off
b - bend
br - bendRelease
pb - preBend
pbr - preBendRelease
brb - bendReleaseBend
\n/ - tremolo bar dip
\n - tremolo bar dive
-/n - tremolo bar Release up
/n\ - tremolo bar inverted dip
/n - tremolo bar return
-\n - tremolo bar Release down
S - shift slide
s - legato slide
/ -  slide into from below or out of upwards
\ -  slide into from above or out of downwards
~ - vibrato
W - wide vibrato
tr - trill
TP - tremolo picking
T - tapping
S - slap
P - pop
< - fade in
^ - brush up
v - brush down
comments
print report bad tab
1 comment total.
0 reply
KennyM79 wrote on December 24 2015, 08:37 am

A mostly accurate tab! My only problem with it is that the author didn't separate out the sections, so readers can't tell where a verse ends and a chorus begins; it's all just one giant barrage of notes with no structure. Otherwise, great job! ****

I want to post or [tab]
guest
You may want to rate the tab now too:
select rating
Please do not post tabs as comments. Select "correction" instead!