Oops, an error
Loading. Please wait.
We have an official Plush tab made by UG professional guitarists. Check out the tab »
×

Plush chords

version 4
version 4

Whole song

Video

4,633 views 132 this week
3 commentsread comments
1 2 3 4 5
x 5
add to favorites
×
Save as Personal and add changes to this tab that will be seen only by you. Learn more ›
×
You can save this tab as Personal to edit and correct it or add notes. All changes will be seen only by you. Learn more »
launch autoscroll
font size
0
reset
transpose
0
reset
simplify chords
display chords
guitar tuner
backing track
0:00
0:00
edit
Autoscroll
slow
fast
+/-
esc
set tempo
stop
Author
Difficulty
About this tab version
Difference from other tabs - (in 4 words: much easier to read) Full, lyrics and instrumental chords. Maintained the integrity and structure of the lyrics - much easier to read. Correct rubric - the song is difficult to read in previous forms. Riffs and matching chords. Was this info helpful? Yes No
Strumming
There is no strumming pattern for this song yet. and get +5 IQ
-------------------------------------------------------------------------------
                            Plush
-------------------------------------------------------------------------------
             
ARTIST: Stone Temple Pilots
ALBUM:  Core
YEAR: 1992

tabbed by : pp1pete

Difference from other tabs - (in 4 words: much easier to read)

 [Full, lyrics and instrumental chords
 [Maintained the integrity and structure of the lyrics - much easier to read
 [Correct rubric - the song is difficult to read in previous forms
 [Riffs and matching chords



CAPO: 0
TUNING: Standard

---CHORDS---

Verse                               Bridge
       D/F#  C/E   Eb7                 G5  F5  C5/E  Eb5  D5
  e||---3-----x-----3--------------|------------------------------|
  B||---2-----5-----3--------------|------------------------------|
  G||---3-----5-----3--------------|------------5-----8----7------|
  D||---0-----5-----5--------------|---5---3----5-----8----7------|
  A||---x-----7-----6--------------|---5---3----3-----6----5------|
  E||---2-----x-----x--------------|---3---1----0-----x----x------|


---INTRO---
  
                    Gdim/         Gsus4 Gsus#4     Gdim/    
              G5 G5  Bb   Am7  G     G       G5 G5  Bb  Am7   G

  e||----------3-3---3)--3-3---3)--|-3-3-3-3--3-3---3)--3-3---3)--|
  B||----------3-3---2)--1-1---0)--|-0-1-2/3--3-3---2)--1-1---0)--|
  G||----------0-0---3)--2-2---0)--|-0-0-0-0--0-0---3)--2-2---0)--|
  D||------------------------------|------------------------------|
  A||------------------------------|------------------------------|
  E||------------------------------|------------------------------|

                    Gdim/         Gsus4 Gsus#4     Gdim/    
              G5 G5  Bb   Am7  G     G       G5 G5  Bb  Am7   G

  e||-3-3-3-3--3-3---3)--3-3---3)--|-3-3-3-3--3-3--3)---3-3---3)--|
  B||-0-1-2/3--3-3---2)--1-1---0)--|-0-1-2/3--3-3--2)---1-1---0)--|
  G||-0-0-0-0--0-0---3)--2-2---0)--|-0-0-0-0--0-0--3)---2-2---0)--|
  D||------------------------------|--------------------------0)--|
  A||------------------------------|------------------------------|
  E||------------------------------|------------------------------|



 

---VERSE 1---

 G       D/F#      F               C
   And I feel that time's a wasted go
 Eb7                 F       G
   So where ya going to tomorrow?
         D/F#      F                C
   And I see that these are lies to come 
 Eb7         F    G         
   Would you even care? 


---PRE CHORUS 1---

     D5/A  Cadd9       G/B     Cadd9      
  e||----------------------0-----------|
  B||-3-----3-----3-----3--3-----3-----|
  G||-2--------------0--0--0--0--0--2--|
  D||-0--0--------------0--0-----------|
  A||-0--------3--------2--0-----------|
  E||----------------------------------|


         D    Cadd9 G/B    Cadd9
   And I feel it...(it....it!)

         D    Cadd9 G/B    Cadd9

         D    Cadd9 G/B    Cadd9
   And I feel it 


---CHORUS 1---

 Eb7                 F
   Where ya going to tomorrow? 
 Eb7                        F
   Where ya going with that mask I found?  
 Eb7                                F
   And I feel, and I feel, When the dogs begin to smell her 
 Eb7               F
   Will she smell alone? 



                    Gdim/         Gsus4 Gsus#4     Gdim/    
              G5 G5  Bb   Am7  G     G       G5 G5  Bb  Am7   G

  e||----------3-3---3)--3-3---3)--|-3-3-3-3--3-3---3)--3-3---3)--|
  B||----------3-3---2)--1-1---0)--|-0-1-2/3--3-3---2)--1-1---0)--|
  G||----------0-0---3)--2-2---0)--|-0-0-0-0--0-0---3)--2-2---0)--|
  D||------------------------------|------------------------------|
  A||------------------------------|------------------------------|
  E||------------------------------|------------------------------|


---VERSE 2---

 G       D/F#      F                  C/E
   And I feel, so much depends on the weather 
 Eb7          F               G
     So is it raining in your bedroom? 
         D/F#      F                     C    
   And I see, that these are the eyes of disarray 
 Eb7              
   Would you even care?  


---PRE CHORUS 2---

      D    Cadd9        G     Cadd9      
  e||----------------------0-----------|
  B||-3-----3-----3-----3--3-----3-----|
  G||-2--------------0--0--0--0--0--2--|
  D||-0--0--------------0--0-----------|
  A||----------3--------2--0-----------|
  E||----------------------------------|


         D    Cadd9 G     Cadd9
   And I feel it...(it....it!)

         D    Cadd9 G     Cadd9

         D    Cadd9 G     Cadd9
   And she feels it 



---CHORUS 2--

 Eb7                 F
   Where ya going to tomorrow? 
 Eb7                        F
   Where ya going with that mask I found?  
 Eb7                                F
   And I feel, and I feel, When the dogs begin to smell her 
 Eb7              F
   Will she smell alone?  

---BRIDGE 1---
G5  F5  C5/E  Eb5  D5

   G5       F5
   When the dogs do find her
 C5/E        Eb5     D5            G
   Got time, time to wait for tomorrow
   F            C/E         D   Eb5
   To find it,  to find it,     to find it
   G5       F5
   When the dogs do find her
 C/E        Eb5     D             G
   Got time, time to wait for tomorrow
   F            C/E        Eb5   D
   To find it,  to find it,   to find it
   
 
---INSTRUMENTAL---


                    Gdim/         Gsus4 Gsus#4     Gdim/    
              G5 G5  Bb   Am7  G     G       G5 G5  Bb  Am7   G

  e||----------3-3---3)--3-3---3)--|-3-3-3-3--3-3---3)--3-3---3)--|
  B||----------3-3---2)--1-1---0)--|-0-1-2/3--3-3---2)--1-1---0)--|
  G||----------0-0---3)--2-2---0)--|-0-0-0-0--0-0---3)--2-2---0)--|
  D||------------------------------|------------------------------|
  A||------------------------------|------------------------------|
  E||------------------------------|------------------------------|

                    Gdim/         Gsus4 Gsus#4     Gdim/    
              G5 G5  Bb   Am7  G     G       G5 G5  Bb  Am7   G

  e||-3-3-3-3--3-3---3)--3-3---3)--|-3-3-3-3--3-3--3)---3-3---3)--|
  B||-0-1-2/3--3-3---2)--1-1---0)--|-0-1-2/3--3-3--2)---1-1---0)--|
  G||-0-0-0-0--0-0---3)--2-2---0)--|-0-0-0-0--0-0--3)---2-2---0)--|
  D||------------------------------|--------------------------0)--|
  A||------------------------------|------------------------------|
  E||------------------------------|------------------------------|


---CHORUS 3--

 Eb7                 F
   Where ya going to tomorrow? 
 Eb7                        F
   Where ya going with that mask I found?  
 Eb7                                F
   And I feel, and I feel, When the dogs begin to smell her 
 Eb7              F
   Will she smell alone?  

---BRIDGE 2---

   G2       F
   When the dogs do find her
 C/E        Eb       D             G
   Got time, time to wait for tomorrow
   F            C/E         D   D#
   To find it,  to find it,     to find it
   G2       F
   When the dogs do find her
 C/E        Eb     D             G
   Got time, time to wait for tomorrow
   F            C/E         D#   D
   To find it,  to find it,   to find it
   


---ENDING---

 oh oh ohs
                    Gdim/         Gsus4 Gsus#4     Gdim/    
              G5 G5  Bb   Am7  G     G       G5 G5  Bb  Am7   G

  e||----------3-3---3)--3-3---3)--|-3-3-3-3--3-3---3)--3-3---3)--|
  B||----------3-3---2)--1-1---0)--|-0-1-2/3--3-3---2)--1-1---0)--|
  G||----------0-0---3)--2-2---0)--|-0-0-0-0--0-0---3)--2-2---0)--|
  D||------------------------------|------------------------------|
  A||------------------------------|------------------------------|
  E||------------------------------|------------------------------|

                    Gdim/         Gsus4 Gsus#4     Gdim/    
              G5 G5  Bb   Am7  G     G       G5 G5  Bb  Am7   G

  e||-3-3-3-3--3-3---3)--3-3---3)--|-3-3-3-3--3-3--3)---3-3---3)--|
  B||-0-1-2/3--3-3---2)--1-1---0)--|-0-1-2/3--3-3--2)---1-1---0)--|
  G||-0-0-0-0--0-0---3)--2-2---0)--|-0-0-0-0--0-0--3)---2-2---0)--|
  D||------------------------------|--------------------------0)--|
  A||------------------------------|------------------------------|
  E||------------------------------|------------------------------|





            
            
Suggest correction
Creating personal tab
Creating personal tab
You can edit any tab online and save it as your Personal.

You can edit, replace or remove any tab part or add personal notes – all changes will be seen only by you.

Personal tabs can be accessed anytime from any device, even offline.
Learn more »
comments
print report bad tab
3 comments total.
0 reply
jimisjoint 233 Mar 22, 2017 04:32 PM

Intro chords a massive improvement.

0 reply
Loudakris 10 May 21, 2017 03:02 AM, edited at 07:03 am

Most accurate version and MUCH easier to read. Appreciate it!

0 reply
scatterthought 10 3 days ago

I'd suggest the 3-3-3-1-1-x version of the Ebmaj7/Bb chord, which I find much easier both coming from the C and going to the F. Cheers!

guest
You may want to rate the tab now too:
select rating
Wanna post a correction for this tab? Suggest correction