Oops, an error
Loading. Please wait.

Purple tab

version 1
version 1

Whole song

1,102 views 1 this week
no commentswrite comment
1 2 3 4 5
3 more votes to show rating
add to favorites
×
Save as Personal and add changes to this tab that will be seen only by you. Learn more ›
×
You can save this tab as Personal to edit and correct it or add notes. All changes will be seen only by you. Learn more »
launch autoscroll
font size
0
reset
how to read this tab
guitar tuner
edit
Autoscroll
slow
fast
+/-
esc
set tempo
stop
Author
#-----------------------------------------------------------------------------#
#-- File created with Instab - http://www.pconline.com/~smcarey/instab.html --#
#-----------------------------------------------------------------------------#

Author/Artist: Stone Temple Pilots
Title: Purple Album


p pull off
h hammer on
A Arpeggio
U Up Arpeggio
P pluck
/ slide up
\ slide down
b bend
r release bend
H natural harmonic
_ pick chord
C chord
V vibrato



All songs tuned, except Meatplow.

Tuning (eb A D G B E), (eb, D) Down ~ 10%
Acoustic Drop C# Tuning
Live Standard Tuning
Key: (E + A) or (D + C#)



Meatplow
Tuning (eb A D G B E), (eb, D) Down ~ 10%
Live Standard Tuning
Key: (E + D) -> (E + A) or (D + C#)



----|--------------------------------------------|--|
----|--------------------------------------------|--|
----|----------------------------x-x-------------|--|
----|----------------------------x-x-------------|--|
----|-2--2--0--0--4--4--4-4-4-4------4--4-4--4-4-|--|
----|-1--4--6--9--3--3--3-3-1-3------3--1-3--3-3-|--|
  

  Intro/Verse                                                                 




----|----------------|
----|-4---5----------|
----|-4---5----------|
----|-4---5----------|
----|---------3------|
----|---------2------|
 

  Prechorus                                                          
          



          
----|-----------------------------------------------------------------------|
----|-----------------------------------------------------------------------|
----|--------------------------------------------------------------------x--|
----|-7--7--7---7--7---7---5--7--7--7--7---------------------------------x--|
----|-5--7--7---7--7---7---3--5--7--7--7---3--3--13\-5--5--5--5----5--5-----|
----|--------------------------------------4--4--14\-4--4--4--4----4--7-----|
  

  Chorus

--------------|
--------------|
-x-x----------|
-x-x-5-----5--|
-----3--5--3--|
--------4-----|





----|------------|
----|-2----1-----|
----|-3----2-----|
----|-4----3-----|
----|-4----3-----|
----|------------|
      Bend notes
 
  End  







Vasoline




----|----------------|
----|----------------|
----|----------------|
----|-20vvvvvvvvvvvv-|
----|----------------|
----|----------------|
  

  G1  Feedback intro



----|-----|--|----------|
----|-----|--|----------|
----|-----|--|----------|
----|-----|4x|----------|
----|-0h1-|--|-13brbrbr-|
----|-----|--|----------|
  

  G3 Intro     End



----|-------|
----|-------|
----|-7-----|
----|-7-----|
----|-------|
----|-------|
  

  G2 Intro/Interlude Chord 




----|---------------------|--|----------------------------|
----|---------------------|--|----------------------------|
----|---------------------|--|----------------------------|
----|---------------------|3x|----------------------------|
----|---------------------|--|----------------------------|
----|-2-4--2-4--2-4--2-4--|--|-2-4--2-4--2-4--2-5b--5-2vv-|
  

  G3 Verse

----|------------|----------------------------|
----|------------|----------------------------|
----|------------|----------------------------|
----|------------|----------------------------|
----|------------|----------------------------|
----|------------|-2-4--2-4--2-4--2-4--2-4-4--|
      

      Verse Riff   End





----|-------------|--|-------------|-------------|--|-----------|
----|-------------|--|-------------|-------------|--|-----------|
----|-------------|--|-------------|-------------|--|-----------|
----|-13-13-13-13-|7x|-13-12-11-10-|-10-10-10-10-|7x|-10--------|
----|-13-13-13-13-|--|-13-12-11-10-|-10-10-10-10-|--|-10--3-----|
----|-------------|--|-------------|-------------|--|-----2-----|
   

  G1 Chorus





----|-8p7-------8p7------8p7------8p7------8p7------8p7-------8p7------8p7--|
----|-----------------------------------------------------------------------|
----|------1010-----1010-----1010-----1010------1010----1010------1010------|
----|-----------------------------------------------------------------------|
----|-----------------------------------------------------------------------|
----|-----------------------------------------------------------------------|
  

  G3 Solo

-----------------------------------------------------------------------------------------|
-----------------------------------------3-----------------------------------------------|
10bvv------------------------------------------------------------------------------------|
-----------------------------------------------------------------------------------------|
------14-14-14-10-10------14-14-14-10-10------14-14-14-10-10-----14-14-14-10-14-10-14-14-|
---------------------8--8-----------------------------------8--8-------------------------|
                                         H



-----|-------------|
-----|----5--------|
-----|-7--7--------|
-----|-7--7--------|
-----|-------------|
-----|-------------|
   

   End   








Lounge Fly




----|-----|----------------------|--|----------|
----|-----|--6br-----------------|--|----------|
----|-7---|-------7--------------|--|-7--------|
----|-7---|----------------------|--|-7--------|
----|-----|------------3-2-3-2---|--|----------|
----|-----|----------------------|--|----------|
  

  Intro                              Verse


----|------------|--|------|
----|------------|--|------|
----|------------|--|------|
----|------------|--|------|
----|-5-----5----|--|-7----|
----|-4-----7----|--|-9----|
  

  Chords 



----|---------------------|--|-------|
----|---------------------|--|-------|
----|-7--7--7--7--7-7--7--|--|-7--7--|
----|-6--7--9--7--6-6--6--|--|-7--7--|
----|-5--5--5--5--5-5--5--|--|-8--7--|
----|---------------------|--|-------|
  

  Bridge 








Interstate Love Song



----|-----------------------------|
----|-5---5---2---4---4---5---0---|
----|-6---4---2---6---5---6---1---|
----|-6---6---2---6---6---7---2---|
----|-----------------------------|
----|-----------------------------|
 

  G2 Intro                                                                             



----|---------------------------------------------------------------------|
----|---------------------------------------------------------------------|
----|---------------------------------------------------------------------|
----|---------------------------------------------------------------------|
----|-13/16--13/14-14/16\14------------------------16\15--18-18br--16-\---|
----|------------------------17---15\13--15-15/17-------------------------|
  

  G1 Intro                                                                              







----|-0---0--0-----------0--|
----|-2br-2--0---------0----|
----|--------------1h2------|
----|-----------------------|
----|-----------12----------|
----|-----------------------|
  

  G1 Bridge                                                                             



----|------------------------------------------------------|
----|------------------------------------------------------|
----|-1--1-x-1-1---1-1--1-1-1-1-1--x-2--1-1---1-1--1-1-1-1-|
----|-2--2-x-2-2---2-2--2-2-2-2-2--x-2--2-2---2-2--2-2-2-2-|
----|-2--2---2-2---2-2--2-2-2-2-2----2--2-2---2-2--2-2-2-2-|
----|------------------------------------------------------|
                                Pt.2 >    




                                                                   
----|-------------------------------------------------------------------------
----|-------------------------------------------------------------------------
----|---------x-x-x------------------------------x-x-x------------------------
----|---------x-x-x-11---------------------------x-x-x-13--10-10--10-10-10-10-
-G1-|-11--11--------11--11-11--11-11-11--11--11--------11--11-11--11-11-11-11-
-G2-|-13--13------------13-13--13-13-13--12--12-------------------------------
  

  Verse                                                                       

--------------------------------------------------------------------------|
--------------------------------------------------------------------------|
---------x-x-x------------------------------x-x-x-------------------------|
---------x-x-x-11---------------------------x-x-x-11----------------------|
-11--11--------11--11-11--11-11-11--11--11--------11--11-11--11-11-11--12-|
-11--11------------11-11--11-11-11--10--10------------10-10--10-10-10--13-|
                                                                          






----|----------------------------------------------------|
----|----------------------------------------------------|
----|-9--------2------------2-------2------------2---1---|
----|-11-------2---11--10---2-------2---11--10---2---2---|
----|-11--14---0---11--11---0---14--0---11--11---0---2---|
----|-----13--------------------13-----------------------|

  
  G1 Chorus
                                                                              
                                                                        







Still Remains



----|---------------------------------------|--|-------------|
----|---------------------------------------|--|-----5-------|
----|-4h6--6--6--6---4-4h6--6--6--4h6--7p6--|--|-----6---4---|
----|-7----7--7--7---7-7----7--7--7----7----|--|-7-------5---|
----|---------------------------------------|--|-7-----------|
----|---------------------------------------|--|-------------|
  

  Intro/Verse                                   




----|-------------|--|
----|-------------|--|
----|-6---5---7---|--|
----|-7---7---9---|--|
----|-------------|--|
----|-------------|--|
  

  PreChorus 




----|-----------------|--|------------------|
----|-----------------|--|------------------|
----|-5---4---4---6---|--|-5----7---4---6---|
----|-7---5---5---7---|--|-7----9---5---7---|
----|-----------------|--|------------------|
----|-----------------|--|------------------|
 

  Chorus 





----|--------|
----|--------|
----|-6------|
----|-7------|
----|--------|
----|--------|
 

  Bridge 









Pretty Penny




----|---------------------|
----|-----------8----8----|
----|-----------7-7--7-7--|
----|-9---9--7----5----5--|
----|-7---7--7------------|
----|---------------------|
      P




----|-----------------------|--|-------------|
----|-5b-4b-2b-0--0h2-2h4-4-|--|-3b-4b-2b-0--|
----|-2--2--2--2--2---2---2-|--|-2--2--2--2--|
----|-----------------------|--|-------------|
----|-----------------------|--|-------------|
----|-----------------------|--|-------------|
     

  Pluck all




----|----------|--|
----|----------|--|
----|-13--13---|--|
----|-14--14---|--|
----|-11--11---|--|
----|----------|--|
  

  G1 Interlude 




----|------|---------|--|
----|------|--11-----|--|
----|------|---------|--|
----|------|---------|--|
----|------|---------|--|
----|-13---|--13--13-|--|
  

  G2 Interlude  




----|---------|
----|---------|
----|-9-------|
----|-9-------|
----|-7-------|
----|---------|
  

  End A









Silvergun Superman




----|-----------------------------|--|---------------------------------------|
----|-----------------------------|--|---------------------------------------|
----|-----------------------------|--|---------------------------------------|
----|-----------------------------|--|---------------------------------------|
----|---------5-2-5-3b--5-2-5-3b--|--|---------5-2-5-3b----------------------|
----|-2-2--6----------------------|--|-2-2--6----------6--1-1-2-2-2-2-1-1-6--|
  

  Intro



----|------------------------------|
----|------------------------------|
----|------------------------------|
----|------------------------------|
----|------------------------------|
----|-6---2-2-2---4-5-6-9---6-9-11-|
  

  Verse

----|-----------------------------|
----|-----------------------------|
----|-----------------------------|
----|-----------------------------|
----|-----------------------------|
----|-6---2-2-2---4-5-6-5---4-2---|





----|-------------------------------------|--|
----|-------------------------------------|--|
----|-7-------5---7--------7-------5---7--|--|
----|-7---10--5---7--8--10-7---10--5---7--|--|
----|-5---11--3---5--8--10-5---11--3---5--|--|
----|-------------------------------------|--|
  

  Chorus                      




----|--------------------|--|
----|-----------------12-|--|
----|-----5-9-5-----5-10-|--|
----|-6h7-------6h7------|--|
----|-5---------5--------|--|
----|--------------------|--|
  

  Bridge









Big Empty



----|----------------------------------------------|--|
----|----3-----------------------------------------|--|
----|--------7------------------5---5--------------|--|
----|----5---5---5-5h8-5--------5---5---5-5--------|--|
----|------------5-5------5-3-----------5-5h7-5--2-|--|
----|-1--------------------------------------------|--|
  

  Verse  P       



----|--------------------------------------------------|
----|----3---------------------------------------------|
----|--------7-----------------5-5---5---5-5-5-5-5-----|
----|----5---5---5-5h8-5-------5-5---5---5-5-5-5-5-5-5-|
----|------------5-5------5-3----------------------3-3-|
----|-1------------------------------------------------|
  

  Verse End




----|-----------|--|--------------------------|
----|-----------|--|--------------------------|
----|-7--7--5---|--|-----------------14-------|
----|-5--7--5---|--|-----------------12---12--|
----|-5--7--3---|--|-----------------12---11--|
----|-----------|--|-9---8---6-6-8------------|
  

  Chorus        

                     

----|-------------------------------|--|
----|-------------------------------|--|
----|------------------14-----------|--|
----|------------------12-12--------|--|
----|------------------12-11--------|--|
----|-9---8---6-6-8-----------------|--|
  

  Interlude                  




----|---------------------|
----|---------------------|
----|----------------14---|
----|----------------12---|
----|----------------12---|
----|9---8---6-6-8--------|
 

  Interlude End      



----|---------------------|--|---------------|---------------------|--|
----|---------------------|--|-----5---------|---------------------|--|
----|---6-7-6----------6--|3x|-6-7---7-6-7---|---6-7-6----------6--|--|
----|---------5------5----|--|---------------|---------5------5----|4x|
----|-7---------7--7------|--|---------------|-7---------7--7------|--|
----|---------------------|--|---------------|---------------------|--| 
 

  Bridge








Unglued




----|-------------------|--|
----|-------------------|--|
----|-------------------|--|
----|-------------------|--|
----|-------------------|--|
----|-1-1-1-1-1-1--11br-|--|
  

  G1 Intro




----|-------------|--|
----|-------------|--|
----|-------------|--|
----|-------------|--|
----|-2-2-2-2-2---|--|
----|-1-1-1-1-1---|--|
  

  G2 Intro/Verse



----|-----------------|--|--------------|
----|-----------------|--|--------------|
----|-----------------|--|-7----6---5---|
----|-----------------|--|-7----7---5---|
----|-14--10--12--12--|--|-9----7---5---|
----|-13--9---13--13--|--|--------------|
  

  G2 Chorus Chords         










Army Ants





----|-----|--------------------------|--|----|
----|-10--|-----------13---12---11---|--|----|
----|-14--|-14---13---11---11---11---|--|-14-|
----|-12--|-12---12---12---12---12---|--|-12-|
----|-12--|-12---11---12---12---12---|--|-12-|
----|-----|--------------------------|--|----|
     

      U   Intro 



----|----------------|
----|----------------|
----|----------10--5-|
----|-7--------10--5-|
----|-5--------8---3-|
----|----6--8--------|
  

  Intro/Chorus 



----|------------|--|
----|------------|--|
----|-6----------|--|
----|-7----------|--|
----|-0----------|--|
----|------------|--|
  

  Verse 



----|----------------------|--|-------------|--|--------|
----|----------------------|--|-------------|--|--------|
----|----------------------|--|-------------|--|--------|
----|-13-13-13-13----------|--|-12-12-12-12-|--|-12-----|
----|-13-13-13-13----------|--|-12-12-12-12-|--|-12-----|
----|-------------6--6--6--|--|-------------|--|--------|
  

  Bridge          G2           1st end          2nd end







Kitchenware & Candybars




----|---------------------------------|--|
----|-----0---0-------0---0-----------|--|
----|-----0---0-------0---0-----------|--|
----|-----------------------------9---|--|
----|-----------------------------9---|--|
----|-1-1---------1-1---------1-1-----|--|
 

  G1 Verse P 




----|---------------------|--|----------------------|
----|---------------------|--|----------------------|
----|-5---5------------7\-|--|-5---5----------------|
----|-5---5------------7\-|--|-5---5----------------|
----|-3---3---------------|--|-3---3----------------|
----|---------4--3--3-----|--|---------4--3--4-4br\-|
  

  G2  A  Chorus 




----|----------|-------------------|
----|----------|-------------------|
----|-6--------|-------------------|
----|-7--------|------7------------|
----|-7--------|------8------------|
----|----------|-------------------|
  

  G2 Interlude   Interlude end   

            
            
Suggest correction
Creating personal tab
Creating personal tab
You can edit any tab online and save it as your Personal.

You can edit, replace or remove any tab part or add personal notes – all changes will be seen only by you.

Personal tabs can be accessed anytime from any device, even offline.
Learn more »
Give kudos to tab author, rate the tab!
1 2 3 4 5
comments
print report bad tab
guest
You may want to rate the tab now too:
select rating
Wanna post a correction for this tab? Suggest correction