Oops, an error
Loading. Please wait.

Sour Girl bass

version 1
version 1

Whole song

Interactive

15,229 views 9 this week
2 commentsread comments
1 2 3 4 5
x 9
add to favorites
×
Save as Personal and add changes to this tab that will be seen only by you. Learn more ›
×
You can save this tab as Personal to edit and correct it or add notes. All changes will be seen only by you. Learn more »
launch autoscroll
font size
0
reset
guitar tuner
backing track
0:00
0:00
edit
Autoscroll
slow
fast
+/-
esc
set tempo
stop
"Sour Girl"
Stone Temple Pilots - No. 4

INTRO
G:--------------------------------------------------------------
D:--------------------------------------------------------------
A:------7--8--8--8--7--------5--6--6--6--5----------------------
E:--10-----------------8--8-----------------7--7--7--8--8--8--7-

G:----------------------------------------------------------------
D:----------------------------------------------------------------
A:--------------------------7--8--8--7--------5--6--6--5----------
E:--1---1--1h3--3---3---10--------------8--8--------------7--7--7-

G:------------------------------------------------
D:------------------------------------------------
A:---------------8---8--8------8h10---8h10---10\--
E:--8--8--8--7-------------10---------------------


VERSE 1
G:-------------------------------------------------------
D:--4--4--4----------------------------------------------
A:-----------5--5--5--3--3-----------------3--2----------
E:--------------------------1--1--1--3--3--------3--5--5-

G:-------------------------------------------------------------------
D:--------------------------------------------4--4--4----------------
A:--3--5--5--5--3--------------------3--2--------------5--5--5--3--3-
E:-----------------5\-1--1--1--3--3--------3-------------------------

G:-------------------------------------------------------------
D:-------------------------------------------------------------
A:-----------------3--2--------------------------------8--8--8-
E:--1--1--1--3--3--------3--5--5--5--6--6--6--6--8h10----------

G:-------------------------------------------------------------------------
D:-------------------------------------------------------------------------
A:-----8h10--10--10--10-10--9--9--9--5--5--5--3--3-----------------3--2----
E:--10----------------------------------------------1--1--1--3--3--------3-

G:------------------------------------------------------------------------
D:-------------------------------------------------4--4--4----------------
A:--------3--5--5--5--3-------------------3--2--------------5--5--5--3--3-
E:--5--5-----------------5\-1--1--1--3--3-------3-------------------------

G:-------------------------------------------------------------------------------
D:-------------------------------------------------------------------------------
A:-----------------3--2-----------------------------8--8--8-----8h10--10--10-----
E:--1--1--1--3--3--------3--5--5--5--6--6--6--8h10-----------10---------------8\-

CHORUS 1
G:---------------------------------------------------------------------------------
D:-----------------------7--7--7--7-------------------------------------10--10-----
A:-----------------5--8--------------8--8--8--8--8-10------------10h12----------12-
E:--6--6--6--6--6--------------------------------------8--8--8---------------------

G:----------------------------------------------------------------
D:-----------------------------------------------------7--7--7--7-
A:--10--10--10--7--7--8--8--10-------------------5--8-------------
E:------------------------------8\-6--6--6--6--6------------------

G:------------------------------------------------------------
D:------------------------------------------------------------
A:--8--8--8--8--8--10-----------------------------10------10--
E:-----------------------10--(10)-\-3---3--3/-10------10------

BRIDGE 1
G:--------------------------------------------------------------------------
D:--------------------------------------------------------------------------
A:--9--9--9--5--5--5--3--3-----------------3--2-----------3--5--5--5--3-----
E:--------------------------1--1--1--3--3--------3--5--5-----------------5\-

G:-------------------------
D:-------------------------
A:-----------------3--2----
E:--1--1--1--3--3--------3-

VERSE 2
G:-------------------------------------------------------
D:--4--4--4----------------------------------------------
A:-----------5--5--5--3--3-----------------3--2----------
E:--------------------------1--1--1--3--3--------3--5--5-

G:-------------------------------------------------------------------
D:--------------------------------------------4--4--4----------------
A:--3--5--5--5--3--------------------3--2--------------5--5--5--3--3-
E:-----------------5\-1--1--1--3--3--------3-------------------------

G:-------------------------------------------------------------
D:-------------------------------------------------------------
A:-----------------3--2--------------------------------8--8--8-
E:--1--1--1--3--3--------3--5--5--5--6--6--6--6--8h10----------

G:-------------------------------------------------------------------------
D:-------------------------------------------------------------------------
A:-----8h10--10--10--10-10--9--9--9--5--5--5--3--3-----------------3--2----
E:--10----------------------------------------------1--1--1--3--3--------3-

G:------------------------------------------------------------------------
D:-------------------------------------------------4--4--4----------------
A:--------3--5--5--5--3-------------------3--2--------------5--5--5--3--3-
E:--5--5-----------------5\-1--1--1--3--3-------3-------------------------

G:-------------------------------------------------------------------------------
D:-------------------------------------------------------------------------------
A:-----------------3--2-----------------------------8--8--8-----8h10--10--10-----
E:--1--1--1--3--3--------3--5--5--5--6--6--6--8h10-----------10---------------8\-

CHORUS 2
G:---------------------------------------------------------------------------------
D:-----------------------7--7--7--7-------------------------------------10--10-----
A:-----------------5--8--------------8--8--8--8--8-10------------10h12----------12-
E:--6--6--6--6--6--------------------------------------8--8--8---------------------

G:----------------------------------------------------------------
D:-----------------------------------------------------7--7--7--7-
A:--10--10--10--7--7--8--8--10-------------------5--8-------------
E:------------------------------8\-6--6--6--6--6------------------

G:-------------------------------------------------------------------
D:-------------------------------------------------------------------
A:--8--8--8--8--8--10--------------------------------10------10------
E:-----------------------10---(10)\--3---3--3--3/10------10------10\-

G:-------------------------------------------------------------------------
D:-----------------------7--7--7--7------------------------------12--(12)\-
A:-----------------5--8--------------8--8--8--8--9-10---10---10------------
E:--6--6--6--6--6----------------------------------------------------------

G:-------------------------------------------------------------------------
D:--------------------------------------------------7--7--7--7-------------
A:--------------------------------------------5--8--------------8--8--8--8-
E:--3---3--3--3-3--3--3----5---6--6--6--6--6-------------------------------

G:----------------------------------------------
D:----------------------------------------------
A:--8--10----------------------------10------10-
E:-----------10---(10)\--3---3--3/10------10----

BRIDGE 2
G:--------------------------------------------------------------------
D:--------------------------------------------------------------------
A:------7--8--8--8--7--------5--6--6--6--5----------------------------
E:--10-----------------8--8-----------------7--7--7--8--8--8--7--(7)\-

G:----------------------------------------------------------------------
D:----------------------------------------------------------------------
A:--------------------------7--8--8--8--7------------5--6--6--6--5------
E:--1---1--1h3--3---3---10-----------------8------8-----------------7---

G:-------------------------------------------------------
D:-----------------------------------------------/12-----
A:----------------------/8---8--8------8h10---10-----14\-
E:----7--7--8--8--8--7-------------10--------------------

CHORUS 3
G:-------------------------------------------------------------------------------
D:-----------------------7--7--7--7-----------------------------------10--10-----
A:-----------------5--8--------------8--8--8--8--10------------10h12----------12-
E:--6--6--6--6--6------------------------------------8--8--8---------------------

G:------------------------------------------------------------------
D:-------10-10-------------------------------------------7--7--7--7-
A:--10----------7--10-8---9--10--------------------5--8-------------
E:-------------------------------8\-6--6--6--6--6-------------------

G:---------------------------------------------------------------
D:---------------------------------------------------------------
A:--8--8--8--8--9--10----------------------------10------10------
E:-----------------------10---(10)\--3--3--3/10------10------10\-

G:--------------------------------------------------------------------------
D:-----------------------7--7--7--7--------------------------------12-(12)\-
A:-----------------5--8--------------8--8--8--8--8-9--10---10---10----------
E:--6--6--6--6--6-----------------------------------------------------------

G:------------------------------------------------------------------------
D:-------------------------------------------------7--7--7--7-------------
A:-------------------------------------------5--8--------------8--8--8--8-
E:--3---3--3--3-3--3--3----5--6--6--6--6--6-------------------------------

G:-----------------------------------------------------
D:-----------------------------------------------------
A:--8--10------------------------------10------10--10--
E:-----------10---(10)\--3----3--3/10------10----------

OUTRO 
G:--------------------------------------------------------------------------
D:--------------------------------------------------------------------------
A:--9--9--9--5--5--5--3--3-----------------3--2-----------3--5--5--5--3-----
E:--------------------------1--1--1--3--3--------3--5--5-----------------5\-

G:-------------------------------------------------------------------------
D:--------------------------4--4--4----------------------------------------
A:-----------------3--2--------------5--5--5--3--3-----------------3--2----
E:--1--1--1--3--3--------3--------------------------1--1--1--3--3--------3-

G:---------------------------------------------------------------
D:---------------------------------------------------------------
A:-----------------------------8--8--8------8h10--10--10--10-10--
E:--5--5--5--6--6--6--6--8h10-----------10-----------------------

G:--------------------------------------------------------------------------
D:--------------------------------------------------------------------------
A:--9--9--9--5--5--5--3--3-----------------3--2-----------3--5--5--5--3-----
E:--------------------------1--1--1--3--3--------3--5--5-----------------5\-

G:-------------------------------------------------------------------------
D:--------------------------4--4--4----------------------------------------
A:-----------------3--2--------------5--5--5--3--3-----------------3--2----
E:--1--1--1--3--3--------3--------------------------1--1--1--3--3--------3-

G:---------------------------------------------------------------
D:---------------------------------------------------------------
A:-----------------------------8--8--8------8h10--10--10--10-10--
E:--5--5--5--6--6--6--6--8h10-----------10-----------------------


            
            
Suggest correction
Creating personal tab
Creating personal tab
You can edit any tab online and save it as your Personal.

You can edit, replace or remove any tab part or add personal notes – all changes will be seen only by you.

Personal tabs can be accessed anytime from any device, even offline.
Learn more »
comments
print report bad tab
2 comments total.
-1 reply
nostradamus420 10 Feb 24, 2007 11:07 AM

the intro isn't complete... and the verse isn't complete or right either... what you have for the intro starts it off... but that's about it

0 reply
erind99 10 Feb 22, 2014 02:09 PM

Wow, I don't think I ever realized how beautiful the bass line is in this song. Thanks for posting.

guest
Wanna post a correction for this tab? Suggest correction