Oops, an error
Loading. Please wait.

Still Remains tab

version 4
version 4

Whole song

Interactive

11,002 views 18 this week
1 commentread comment
1 2 3 4 5
x 7
add to favorites
×
Save as Personal and add changes to this tab that will be seen only by you. Learn more ›
×
You can save this tab as Personal to edit and correct it or add notes. All changes will be seen only by you. Learn more »
launch autoscroll
font size
0
reset
how to read this tab
guitar tuner
edit
Autoscroll
slow
fast
+/-
esc
set tempo
stop
Author
"Still Remains"
Stone Temple Pilots
Purple, 1994
Standard Tuning (EADGBE)

KEY
/= slide down
p= pull off

Intro (Play 3 times)
e|-0----0-0-0--0--0----0-0--0----0----|
B|-0----0-0-0--0--0----0-0--0----0----|
G|-4/6--6-6-6--6--4/6--6-6--4/6--7p6--|
D|-6/7--7-7-7--7--6/7--7-7--6/7--7----|
A|-0----0-0-0--0--0----0-0--0----0----|
E|-0----0-0-0--0--0----0-0--0----0----|

e|------0----0--|
B|-2----5----3--|
G|-2----6----4--|
D|-2----7----5--|
A|-0----0----0--|
E|--------------|

Verse (Play 4 times) [Our bed we live, our bed we sleep...]
e|-0----0-0-0--0--0----0-0--0----0----|
B|-0----0-0-0--0--0----0-0--0----0----|
G|-4/6--6-6-6--6--4/6--6-6--4/6--7p6--|
D|-6/7--7-7-7--7--6/7--7-7--6/7--7----|
A|-0----0-0-0--0--0----0-0--0----0----|
E|-0----0-0-0--0--0----0-0--0----0----|

(Play twice) [Ohhh, you know I'd beg for you...]
e|-0---0-0-0--5-5-5-5--0--0-0-0-0-0-0-0-0-0--|
B|-0---0-0-0--6-6-6-6--3--3-3-3-3-3-3-3-3-3--|
G|-4/6-6-6-6--5-5-5-5--4--4-4-4-4-4-4-4-4-4--|
D|-6/7-7-7-7--0-0-0-0--5--5-5-5-5-5-5-5-5-5--|
A|-0---0-0-0-----------0--0-0-0-0-0-0-0-0-0--|
E|-0---0-0-0-----------0--0-0-0-0-0-0-0-0-0--|

Chorus (Play twice) [Pick a song and sing a yellow nectarine...]
e|-5-5-5-5-5-5-5-5-5-5-5--0-0-0-0-0--0-0-0-0-0--|
B|-6-6-6-6-6-6-6-6-6-6-6--3-3-3-3-3--5-5-5-5-5--|
G|-5-5-5-5-5-5-5-5-5-5-5--4-4-4-4-4--6-6-6-6-6--|
D|-0-0-0-0-0-0-0-0-0-0-0--5-5-5-5-5--7-7-7-7-7--|
A|------------------------0-0-0-0-0--0-0-0-0-0--|
E|------------------------0-0-0-0-0--0-0-0-0-0--|

[If you should die before me ask if you can bring a friend...]
e|----10----10----10----10----10----10----7---7---7---7---7---7---7--|
B|----10----10----10----10----10----10--8---8---8---8---8---8---8----|
G|-10----10----10----10----10----10-----7---7---7---7---7---7---7----|
D|-10----10----10----10----10----10----------------------------------|
A|-------------------------------------------------------------------|
E|-------------------------------------------------------------------|

e|-0-0-0-0-0--0-0-0-0-0--|
B|-3-3-3-3-3--5-5-5-5-5--|
G|-4-4-4-4-4--6-6-6-6-6--|
D|-5-5-5-5-5--7-7-7-7-7--|
A|-0-0-0-0-0--0-0-0-0-0--|
E|-0-0-0-0-0--0-0-0-0-0--|

[Pick a flower, hoold your breath and drift away...]
e|----10----10----10----10----10----10----7---7---7---7---7---7---7--|
B|----10----10----10----10----10----10--8---8---8---8---8---8---8----|
G|-10----10----10----10----10----10-----7---7---7---7---7---7---7----|
D|-10----10----10----10----10----10----------------------------------|
A|-------------------------------------------------------------------|
E|-------------------------------------------------------------------|

e|-0-0-0-0-0--0-0-0-0-0--|
B|-3-3-3-3-3--5-5-5-5-5--|
G|-4-4-4-4-4--6-6-6-6-6--|
D|-5-5-5-5-5--7-7-7-7-7--|
A|-0-0-0-0-0--0-0-0-0-0--|
E|-0-0-0-0-0--0-0-0-0-0--|

Verse (Play 4 times) [She holds my hand, we share a laugh...]
e|-0----0-0-0--0--0----0-0--0----0----|
B|-0----0-0-0--0--0----0-0--0----0----|
G|-4/6--6-6-6--6--4/6--6-6--4/6--7p6--|
D|-6/7--7-7-7--7--6/7--7-7--6/7--7----|
A|-0----0-0-0--0--0----0-0--0----0----|
E|-0----0-0-0--0--0----0-0--0----0----|

(Play twice) [Ohhh, you know I'd beg for you...]
e|-0---0-0-0--5-5-5-5--0--0-0-0-0-0-0-0-0-0--|
B|-0---0-0-0--6-6-6-6--3--3-3-3-3-3-3-3-3-3--|
G|-4/6-6-6-6--5-5-5-5--4--4-4-4-4-4-4-4-4-4--|
D|-6/7-7-7-7--0-0-0-0--5--5-5-5-5-5-5-5-5-5--|
A|-0---0-0-0-----------0--0-0-0-0-0-0-0-0-0--|
E|-0---0-0-0-----------0--0-0-0-0-0-0-0-0-0--|

Chorus (Play twice) [Pick a song and sing a yellow nectarine...]
e|-5-5-5-5-5-5-5-5-5-5-5--0-0-0-0-0--0-0-0-0-0--|
B|-6-6-6-6-6-6-6-6-6-6-6--3-3-3-3-3--5-5-5-5-5--|
G|-5-5-5-5-5-5-5-5-5-5-5--4-4-4-4-4--6-6-6-6-6--|
D|-0-0-0-0-0-0-0-0-0-0-0--5-5-5-5-5--7-7-7-7-7--|
A|------------------------0-0-0-0-0--0-0-0-0-0--|
E|------------------------0-0-0-0-0--0-0-0-0-0--|

[If you should die before me ask if you can bring a friend...]
e|----10----10----10----10----10----10----7---7---7---7---7---7---7--|
B|----10----10----10----10----10----10--8---8---8---8---8---8---8----|
G|-10----10----10----10----10----10-----7---7---7---7---7---7---7----|
D|-10----10----10----10----10----10----------------------------------|
A|-------------------------------------------------------------------|
E|-------------------------------------------------------------------|

e|-0-0-0-0-0--0-0-0-0-0--|
B|-3-3-3-3-3--5-5-5-5-5--|
G|-4-4-4-4-4--6-6-6-6-6--|
D|-5-5-5-5-5--7-7-7-7-7--|
A|-0-0-0-0-0--0-0-0-0-0--|
E|-0-0-0-0-0--0-0-0-0-0--|

[Pick a flower, hold your breath and drift away...]
e|----10----10----10----10----10----10----7---7---7---7---7---7---7--|
B|----10----10----10----10----10----10--8---8---8---8---8---8---8----|
G|-10----10----10----10----10----10-----7---7---7---7---7---7---7----|
D|-10----10----10----10----10----10----------------------------------|
A|-------------------------------------------------------------------|
E|-------------------------------------------------------------------|

e|-0-0-0-0-0--0-0-0-0-0--|
B|-3-3-3-3-3--5-5-5-5-5--|
G|-4-4-4-4-4--6-6-6-6-6--|
D|-5-5-5-5-5--7-7-7-7-7--|
A|-0-0-0-0-0--0-0-0-0-0--|
E|-0-0-0-0-0--0-0-0-0-0--|

Interlude (Play 5 times)
e|-0----0-0-0--0--0-0-0-0--0-0--|
B|-0----0-0-0--0--0-0-0-0--0-0--|
G|-4/6--6-6-6--6--7-6-4-6--6-6--|
D|-6/7--7-7-7--7--7-7-6-7--7-7--|
A|-0----0-0-0--0--0-0-0-0--0-0--|
E|-0----0-0-0--0--0-0-0-0--0-0--|

Verse (Play 4 times) [She tells me things, and listens well...]
e|-0----0-0-0--0--0----0-0--0----0----|
B|-0----0-0-0--0--0----0-0--0----0----|
G|-4/6--6-6-6--6--4/6--6-6--4/6--7p6--|
D|-6/7--7-7-7--7--6/7--7-7--6/7--7----|
A|-0----0-0-0--0--0----0-0--0----0----|
E|-0----0-0-0--0--0----0-0--0----0----|

(Play twice) [Ohhh, you know I'd beg for you...]
e|-0---0-0-0--5-5-5-5--0--0-0-0-0-0-0-0-0-0--|
B|-0---0-0-0--6-6-6-6--3--3-3-3-3-3-3-3-3-3--|
G|-4/6-6-6-6--5-5-5-5--4--4-4-4-4-4-4-4-4-4--|
D|-6/7-7-7-7--0-0-0-0--5--5-5-5-5-5-5-5-5-5--|
A|-0---0-0-0-----------0--0-0-0-0-0-0-0-0-0--|
E|-0---0-0-0-----------0--0-0-0-0-0-0-0-0-0--|

Chorus (Play twice) [Pick a song and sing a yellow nectarine...]
e|-5-5-5-5-5-5-5-5-5-5-5--0-0-0-0-0--0-0-0-0-0--|
B|-6-6-6-6-6-6-6-6-6-6-6--3-3-3-3-3--5-5-5-5-5--|
G|-5-5-5-5-5-5-5-5-5-5-5--4-4-4-4-4--6-6-6-6-6--|
D|-0-0-0-0-0-0-0-0-0-0-0--5-5-5-5-5--7-7-7-7-7--|
A|------------------------0-0-0-0-0--0-0-0-0-0--|
E|------------------------0-0-0-0-0--0-0-0-0-0--|

[If you should die before me ask if you can bring a friend...]
e|----10----10----10----10----10----10----7---7---7---7---7---7---7--|
B|----10----10----10----10----10----10--8---8---8---8---8---8---8----|
G|-10----10----10----10----10----10-----7---7---7---7---7---7---7----|
D|-10----10----10----10----10----10----------------------------------|
A|-------------------------------------------------------------------|
E|-------------------------------------------------------------------|

e|-0-0-0-0-0--0-0-0-0-0--|
B|-3-3-3-3-3--5-5-5-5-5--|
G|-4-4-4-4-4--6-6-6-6-6--|
D|-5-5-5-5-5--7-7-7-7-7--|
A|-0-0-0-0-0--0-0-0-0-0--|
E|-0-0-0-0-0--0-0-0-0-0--|

[Pick a flower, hold your breath and drift away...]
e|----10----10----10----10----10----10----7---7---7---7---7---7---7--|
B|----10----10----10----10----10----10--8---8---8---8---8---8---8----|
G|-10----10----10----10----10----10-----7---7---7---7---7---7---7----|
D|-10----10----10----10----10----10----------------------------------|
A|-------------------------------------------------------------------|
E|-------------------------------------------------------------------|

e|-0-0-0-0-0--0-0-0-0-0--|
B|-3-3-3-3-3--5-5-5-5-5--|
G|-4-4-4-4-4--6-6-6-6-6--|
D|-5-5-5-5-5--7-7-7-7-7--|
A|-0-0-0-0-0--0-0-0-0-0--|
E|-0-0-0-0-0--0-0-0-0-0--|

These are probrably my favorite lyrics by STP:

Our bed we live, our bed we sleep
Making love and I become you -
Flesh is warm with naked feet
Stabbing thorns and you become meat
Oh, Id beg for you, you know Ill beg for you.
She holds my hand we share a laugh,
Slipping orange blossom breezes -
Love is still and sweat remains
A cherished gift unselfish feeling...
Oh, Id beg for you, you know Ill beg for you.
She tells me things, I listen well
Drink the wine and save the water -
Skin is smooth, I steal a glance
Dragon flies are gliding over...
Oh, Ill beg for you - you know Ill beg for you

Pick a song and sing a yellow nectarine
Take a bath, Ill drink the water that you leave
If you should die before me -
Ask if you can bring a friend
Pick a flower, hold your breath
And drift away...

Please rate and comment. It would be greatly appreciated! ;)
Suggest correction
Creating personal tab
Creating personal tab
You can edit any tab online and save it as your Personal.

You can edit, replace or remove any tab part or add personal notes – all changes will be seen only by you.

Personal tabs can be accessed anytime from any device, even offline.
Learn more »
comments
print report bad tab
1 comment total.
+1 reply
JimBonJovi 830 Jun 25, 2009 11:32 AM

In the[Ohhh, you know I'd beg for you...]part, it go's something like this.
e|-0---0-0-0--0-0-0-0--0--0-0-0-0--0-0-0-0-0--|
B|-0---0-0-0--6-6-6-6--3--3-3-3-3--3-3-3-3-3--|
G|-4/6-6-6-6--5-5-5-5--4--4-4-4-4--2-2-2-2-2--|
D|-6/7-7-7-7--7-7-7-7--5--5-5-5-5--4-4-4-4-4--|
A|-0---0-0-0--0-0-0-0--0--0-0-0-0--0-0-0-0-0--|
E|-0---0-0-0-----------0--0-0-0-0--0-0-0-0-0--|

And jjhand told me to put this for the chorus and interlude in the still remains for the Purple album (version 2)tab.

play this line 2x
E|------------------------------|----------------------------------|
B|-6----6--6-6---5---5--5--5-5--|-8---8-8---10-10---10--10--10-10--|
G|-5----5--5-5---5---5--5--5-5--|-7---7-7---9--9-----9---9---9--9--|
D|-3----3--3-3---3---3--3--3-3--|-5---5-5---7--7-----7---7---7--7--|
A|-3----3--3-3---3---3--3--3-3--|-5---5-5---7--7-----7---7---7--7--|
E|------------------------------|----------------------------------|

e|--8----8----8----8-----7--7--7-------5-5-5-7--7---7---7-----|
B|----10---10---10---10---8--8--8------8-8-8-10-10--10--10----|
G|--------------------------------9\7--7-7-7-7--9---9---9-----|
D|-------------------------------------5-5-5-7--7---7---7-----|
A|-------------------------------------5-5-5-7--7---7---7-----|
E|------------------------------------------------------------|

e|--8----8----8----8-----7--7--7-------5-5-5-7--7----|
B|----10---10---10---10---8--8--8------8-8-8-10-10---|
G|--------------------------------9\7--7-7-7-7--9----|
D|-------------------------------------5-5-5-7--7----|
A|-------------------------------------5-5-5-7--7----|
E|---------------------------------------------------|

Interlude:
e|---7--7---7--7----7--7---7---7--7--7-----|
B|---10-10--10-10---10-10--10--10-10-10----|
G|---9--9---9--9----9--9---9---9--9--9-----|
D|---7--7---7--7----7--7---7---7--7--7-----| 4x
A|---7--7---7--7----7--7---7---7--7--7-----|
E|-----------------------------------------|

Other than that the verse sounds superb.

guest
You may want to rate the tab now too:
select rating
Wanna post a correction for this tab? Suggest correction