Oops, an error
Loading. Please wait.

Unglued bass

version 2
version 2

Whole song

Interactive

4,816 views 9 this week
1 commentread comment
1 2 3 4 5
2 more votes to show rating
add to favorites
×
Save as Personal and add changes to this tab that will be seen only by you. Learn more ›
×
You can save this tab as Personal to edit and correct it or add notes. All changes will be seen only by you. Learn more »
launch autoscroll
font size
0
reset
guitar tuner
edit
Autoscroll
slow
fast
+/-
esc
set tempo
stop
Author
G|----------------------------|
D|----------------------------| Verses
A|------5-4-5--------5-4-5-7--|
E|--0-0-------3-0-0----------3|


G|-----------|
D|-----------| Chorus (pt. 1)
A|-----------| Do that Three times.
E|---00000---|

G|-------------|
D|-------------|
A|-------------| First 'Ending' To Chorus (pt. 1)
E|--00000-33---|

G|--------------|
D|--------------|
A|-------------5|
E|--000000-5h7--|

Second Part of Chorus (repeat throughout solo as well)

G|-----------|------------|-----------|
D|-----------|------------|-----------|
A|-----------|------------|-----------|
E|-777-3-333-|--000-3-333-|-777-3-333-|

First Ending 
to Chorus Pt 2    ---   Second Ending-|
G|----------------|----------------|
D|----------------|----------------|
A|--0-00------3-5-|-0-00-------3-4-|
E|-----0-3-5------|---- 0-3-5------|

Before Another Verse, after chorus play 
G|--------------------|
D|--------------------|This is also the outro, at outro, play a C on your A 
A|--5-555555-4-44444-4|String (3rd fret)
E|--------------------|



Suggest correction
Creating personal tab
Creating personal tab
You can edit any tab online and save it as your Personal.

You can edit, replace or remove any tab part or add personal notes – all changes will be seen only by you.

Personal tabs can be accessed anytime from any device, even offline.
Learn more »
Give kudos to tab author, rate the tab!
1 2 3 4 5
comments
print report bad tab
1 comment total.
0 reply
VegasBass 10 Dec 16, 2013 04:10 PM

The Chorus line should be on the A string not the E. Thanx

guest
You may want to rate the tab now too:
select rating
Wanna post a correction for this tab? Suggest correction