Oops, an error
Loading. Please wait.

Vasoline bass

version 4
version 4

Whole song

Interactive

859 views 12 this week
no commentswrite comment
1 2 3 4 5
x 6
add to favorites
×
Save as Personal and add changes to this tab that will be seen only by you. Learn more ›
×
You can save this tab as Personal to edit and correct it or add notes. All changes will be seen only by you. Learn more »
launch autoscroll
font size
0
reset
guitar tuner
backing track
0:00
0:00
edit
Autoscroll
slow
fast
+/-
esc
set tempo
stop
Title: Vasoline
Artist: Stone Temple Pilots
Album: Purple
Tuning: Standard (E A D G)
Tab Author: Pearce Hamblin

                                                                         Intro
G|--------|--------|--------|--------|--------|--------|--------|--------|------------------------|
D|--------|--------|--------|--------|--------|--------|--------|--------|------------------------|
A|--------|--------|--------|--------|--------|--------|--------|--------|------------------------|
E|--------|--------|--------|--------|--------|--------|--------|--------|-5b-------5b-------5b---|


G|------------------------|------------------------|------------------------|------------------------|
D|------------------------|------------------------|------------------------|------------------------|
A|------------------------|------------------------|------------------------|------------------------|
E|-----5b-------5b--------|-5b-------5b-------5b---|-----5b-------5b--------|-5b-------5b-------5b---|


G|------------------------|------------------------|---------------------------------|
D|------------------------|------------------------|---------------------------------|
A|------------------------|------------------------|---------------------------------|
E|-----5b-------5b--------|-5b-------5b-------5b---|-----6---6---4---4---3---3---1---|


G|---------------------------|---------------------------|------------------------|
D|---------------------------|---------------------------|------------------------|
A|---------------------------|---------------------------|------------------------|
E|-1---3----1---3----1---3---|-----1---3----1---3----1---|-3----1---3----1---3----|


G|---------------------------|---------------------------|------------------------|
D|---------------------------|---------------------------|------------------------|
A|---------------------------|---------------------------|------------------------|
E|-1---3----1---3----1---3---|-----1---3----1---3----1---|-3----1---3----1---3----|

                                                               Verse 1
G|---------------------------|---------------------------------|---------------------------|
D|---------------------------|---------------------------------|---------------------------|
A|---------------------------|---------------------------------|---------------------------|
E|-1---3----1---3----1---3---|-----0---1---0---1---0---1---1---|-1---3----1---3----1---3---|


G|---------------------------|------------------------|---------------------------|
D|---------------------------|------------------------|---------------------------|
A|---------------------------|------------------------|---------------------------|
E|-----1---3----1---3----1---|-3----1---3----1---3----|-1---3----1---3----1---3---|


G|---------------------------|------------------------|---------------------------|
D|---------------------------|------------------------|---------------------------|
A|---------------------------|------------------------|---------------------------|
E|-----1---3----1---3----1---|-3----1---3----1---3----|-1---3----1---3----1---3---|

                             Chorus 1
G|---------------------------|---------------------------------|---------------------------------|
D|---------------------------|---------------------------------|---------------------------------|
A|---------------------------|-6---6---6---6---6---6---6---6---|-6---6---6---6---6---6---6---6---|
E|-----1---3----3---6---6----|---------------------------------|---------------------------------|


G|---------------------------------|---------------------------------|---------------------------------|
D|---------------------------------|---------------------------------|---------------------------------|
A|-6---6---6---6---6---6---6---6---|-6---6---6---6---6---5---4---3---|-----3---3---3---3---3---3---3---|
E|---------------------------------|---------------------------------|---------------------------------|


G|---------------------------------|---------------------------------|------------------------------|
D|---------------------------------|---------------------------------|------------------------------|
A|-3---3---3---3---3---3---3---3---|-3---3---3---3---3---3---3---3---|-1---3---3---3---3------------|
E|---------------------------------|---------------------------------|---------------------1--------|

Verse 2
G|---------------------------|---------------------------|------------------------|
D|---------------------------|---------------------------|------------------------|
A|---------------------------|---------------------------|------------------------|
E|-1---3----1---3----1---3---|-----1---3----1---3----1---|-3----1---3----1---3----|


G|---------------------------|---------------------------|------------------------|
D|---------------------------|---------------------------|------------------------|
A|---------------------------|---------------------------|------------------------|
E|-1---3----1---3----1---3---|-----1---3----1---3----1---|-3----1---3----1---3----|


G|---------------------------|---------------------------------|---------------------------|
D|---------------------------|---------------------------------|---------------------------|
A|---------------------------|---------------------------------|---------------------------|
E|-1---3----1---3----1---3---|-----0---1---0---1---0---1---1---|-1---3----1---3----1---3---|


G|---------------------------|------------------------|---------------------------|
D|---------------------------|------------------------|---------------------------|
A|---------------------------|------------------------|---------------------------|
E|-----1---3----1---3----1---|-3----1---3----1---3----|-1---3----1---3----1---3---|


G|---------------------------|------------------------|---------------------------|
D|---------------------------|------------------------|---------------------------|
A|---------------------------|------------------------|---------------------------|
E|-----1---3----1---3----1---|-3----1---3----1---3----|-1---3----1---3----1---3---|

                             Chorus 2
G|---------------------------|---------------------------------|---------------------------------|
D|---------------------------|---------------------------------|---------------------------------|
A|---------------------------|-6---6---6---6---6---6---6---6---|-6---6---6---6---6---6---6---6---|
E|-----1---3----3---6---6----|---------------------------------|---------------------------------|


G|---------------------------------|---------------------------------|---------------------------------|
D|---------------------------------|---------------------------------|---------------------------------|
A|-6---6---6---6---6---6---6---6---|-6---6---6---6---6---5---4---3---|-----3---3---3---3---3---3---3---|
E|---------------------------------|---------------------------------|---------------------------------|


G|---------------------------------|---------------------------------|------------------------------|
D|---------------------------------|---------------------------------|------------------------------|
A|-3---3---3---3---3---3---3---3---|-3---3---3---3---3---3---3---3---|-1---3---3---3---3------------|
E|---------------------------------|---------------------------------|---------------------1--------|


G|---------------------------|---------------------------|------------------------|
D|---------------------------|---------------------------|------------------------|
A|---------------------------|---------------------------|------------------------|
E|-1---3----1---3----1---3---|-----1---3----1---3----1---|-3----1---3----1---3----|


G|---------------------------|---------------------------|------------------------|
D|---------------------------|---------------------------|------------------------|
A|---------------------------|---------------------------|------------------------|
E|-1---3----1---3----1---3---|-----1---3----1---3----1---|-3----1---3----1---3----|

                                                         Bridge
G|---------------------------|---------------------------|------------------------|
D|---------------------------|---------------------------|------------------------|
A|---------------------------|---------------------------|------------------------|
E|-1---3----1---3----1---3---|-----1---3----1---3---3----|-5b-------5b-------5b---|


G|------------------------|------------------------|------------------------|------------------------|
D|------------------------|------------------------|------------------------|------------------------|
A|------------------------|------------------------|------------------------|------------------------|
E|-----5b-------5b--------|-5b-------5b-------5b---|-----5b-------5b--------|-5b-------5b-------5b---|


G|------------------------|------------------------|---------------------------------|
D|------------------------|------------------------|---------------------------------|
A|------------------------|------------------------|---------------------------------|
E|-----5b-------5b--------|-5b-------5b-------5b---|-----6---6---4---4---3---3---1---|

(Solo)
G|---------------------------|---------------------------|------------------------|
D|---------------------------|---------------------------|------------------------|
A|---------------------------|---------------------------|------------------------|
E|-1---3----1---3----1---3---|-----1---3----1---3----1---|-3----1---3----1---3----|


G|---------------------------|---------------------------|------------------------|
D|---------------------------|---------------------------|------------------------|
A|---------------------------|---------------------------|------------------------|
E|-1---3----1---3----1---3---|-----1---3----1---3----1---|-3----1---3----1---3----|

                                                               Verse 3
G|---------------------------|---------------------------------|---------------------------|
D|---------------------------|---------------------------------|---------------------------|
A|---------------------------|---------------------------------|---------------------------|
E|-1---3----1---3----1---3---|-----0---1---0---1---0---1---1---|-1---3----1---3----1---3---|


G|---------------------------|------------------------|---------------------------|
D|---------------------------|------------------------|---------------------------|
A|---------------------------|------------------------|---------------------------|
E|-----1---3----1---3----1---|-3----1---3----1---3----|-1---3----1---3----1---3---|


G|---------------------------|------------------------|---------------------------|
D|---------------------------|------------------------|---------------------------|
A|---------------------------|------------------------|---------------------------|
E|-3---1---3----1---3----1---|-3----1---3----1---3----|-1---3----1---3----1---3---|

                             Chorus 3
G|---------------------------|---------------------------------|---------------------------------|
D|---------------------------|---------------------------------|---------------------------------|
A|---------------------------|-6---6---6---6---6---6---6---6---|-6---6---6---6---6---6---6---6---|
E|-----1---3----3---6---6----|---------------------------------|---------------------------------|


G|---------------------------------|---------------------------------|---------------------------------|
D|---------------------------------|---------------------------------|---------------------------------|
A|-6---6---6---6---6---6---6---6---|-6---6---6---6---6---5---4---3---|-----3---3---3---3---3---3---3---|
E|---------------------------------|---------------------------------|---------------------------------|


G|---------------------------------|---------------------------------|------------------------------|
D|---------------------------------|---------------------------------|------------------------------|
A|-3---3---3---3---3---3---3---3---|-3---3---3---3---3---3---3---3---|-1---3---3---3---3------------|
E|---------------------------------|---------------------------------|---------------------1--------|

Outro
G|---------------------------|---------------------------|------------------------|
D|---------------------------|---------------------------|------------------------|
A|---------------------------|---------------------------|------------------------|
E|-1---3----1---3----1---3---|-----1---3----1---3----1---|-3----1---3----1---3----|


G|---------------------------|---------------------------|------------------------|
D|---------------------------|---------------------------|------------------------|
A|---------------------------|---------------------------|------------------------|
E|-1---3----1---3----1---3---|-----1---3----1---3----1---|-3----1---3----1---3----|


G|---------------------------|---------------------------|--------|
D|---------------------------|---------------------------|--------|
A|---------------------------|---------------------------|--------|
E|-1---3----1---3----1---3---|-----1---3----1---3---3----|-5b-----|



            
            
Suggest correction
Creating personal tab
Creating personal tab
You can edit any tab online and save it as your Personal.

You can edit, replace or remove any tab part or add personal notes – all changes will be seen only by you.

Personal tabs can be accessed anytime from any device, even offline.
Learn more »
comments
print report bad tab
guest
You may want to rate the tab now too:
select rating
Wanna post a correction for this tab? Suggest correction