Oops, an error
Loading. Please wait.

Wicked Garden bass

version 2
version 2

Whole song

  • Combined best aspects of other tabs to be more correct.

Interactive

721 views 1 this week
no commentswrite comment
1 2 3 4 5
2 more votes to show rating
add to favorites
×
Save as Personal and add changes to this tab that will be seen only by you. Learn more ›
×
You can save this tab as Personal to edit and correct it or add notes. All changes will be seen only by you. Learn more »
launch autoscroll
font size
0
reset
guitar tuner
backing track
0:00
0:00
edit
Autoscroll
slow
fast
+/-
esc
set tempo
stop
Author
Difficulty
STONE TEMPLE PILOTS
“WICKED GARDEN”


Tuning: E Standard

INTRO

G|---------------|---------------|---------------|---------------|
D|-(5)-----------|---------------|-(5)-----------|---------------|
A|------(5)------|------(5)------|------(5)------|------(5)------|
E|-----------(5)-|-(3)-------(5)-|-----------(5)-|-(3)-------(5)-|

G|---------------------------------|----------------------------------|
D|---------------------------------|----------------------------------|
A|-------------------------5-0-(4)-|----------------------------------|
E|-3-5-5-3-5-5-3-5-5-3-5-3---------|-3-5-5-3-5-5-3-5-5-3-5-3-(2)--(3)-|

G|---------------------------------|----------------------------------|
D|---------------------------------|----------------------------------|
A|-------------------------5-0-(4)-|----------------------------------|
E|-3-5-5-3-5-5-3-5-5-3-5-3---------|-3-5-5-3-5-5-3-5-5-3-5-3-(2)--(3)-|


VERSE

(Can you feel...)
G|----------------------------|------------------------------|
D|----------------------------|------------------------------|
A|-5-4------------------------|-5-4-------------0-3-4-0------|
E|-----5-3--0-2-3--3--0-3-4-5-|-----5-3--0-2-3-----------(3)-|

(Can you see...)
G|----------------------------|-------------------------------|
D|----------------------------|-------------------------------|
A|-5-4------------------------|-5-4-------------0-3-4-0-0-----|
E|-----5-3--0-2-3--3--0-3-4-5-|-----5-3--0-2-3------------(3)-|

(I wanna run...)
G|---------------------------------|----------------------------------|
D|---------------------------------|----------------------------------|
A|-------------------------5-0-(4)-|----------------------------------|
E|-3-5-5-3-5-5-3-5-5-3-5-3---------|-3-5-5-3-5-5-3-5-5-3-5-3-(2)--(3)-|

(But I’m alive...)
G|---------------------------------|----------------------------------|
D|---------------------------------|----------------------------------|
A|-------------------------5-0-(4)-|----------------------------------|
E|-3-5-5-3-5-5-3-5-5-3-5-3---------|-3-5-5-3-5-5-3-5-5-3-5-3-(2)--(3)-|

(Can you see...)
G|----------------------------|------------------------------|
D|----------------------------|------------------------------|
A|-5-4------------------------|-5-4-------------0-3-4-0------|
E|-----5-3--0-2-3--3--0-3-4-5-|-----5-3--0-2-3-----------(3)-|

(Can you speak...)
G|----------------------------|-------------------------------|
D|----------------------------|-------------------------------|
A|-5-4------------------------|-5-4-------------0-3-4-0-0-----|
E|-----5-3--0-2-3--3--0-3-4-5-|-----5-3--0-2-3------------(3)-|

(I wanna drink...)
G|---------------------------------|----------------------------------|
D|---------------------------------|----------------------------------|
A|-------------------------5-0-(4)-|----------------------------------|
E|-3-5-5-3-5-5-3-5-5-3-5-3---------|-3-5-5-3-5-5-3-5-5-3-5-3-(2)--(3)-|

(I’m gonna burn...)
G|---------------------------------|-------------------------------|
D|---------------------------------|-------------------------------|
A|-------------------------5-0-(4)-|-------------------------------|
E|-3-5-5-3-5-5-3-5-5-3-5-3---------|-3-5-5-3-5-5-3-5-5-3-5-5-5-4-3-|


CHORUS

(Can you see just like a child?)
G|----------------------|-----------------|---------------------------|
D|----------------------|-----------------|---------------------------|
A|--------------2-4-(5)-|-5-5-5-5-4-3-(2)-|-2-2-2-2-2-2-2-2-2-2-------|
E|-(2)--2-2-2-2---------|-----------------|---------------------5-4-3-|

(Can you see just what I want?)
G|----------------------|-----------------|---------------------------|
D|----------------------|-----------------|---------------------------|
A|--------------2-4-(5)-|-5-5-5-5-4-3-(2)-|-2-2-2-2-2-2-2-2-2-2-------|
E|-(2)--2-2-2-2---------|-----------------|---------------------5-4-3-|

(Can I bring you back to life?)
G|----------------------|-----------------|---------------------------|
D|----------------------|-----------------|---------------------------|
A|--------------2-4-(5)-|-5-5-5-5-4-3-(2)-|-2-2-2-2-2-2-2-2-2-2-------|
E|-(2)--2-2-2-2---------|-----------------|---------------------5-4-3-|

(Are you still alive?)
G|----------------------|-----------------|-----------------|-----------------|---------------|
D|----------------------|-----------------|-------5-6-------|-------5-6-------|-------5-6-----|
A|--------------2-4-(5)-|-5-5-5-5-5-6-(7)-|-7-7-7-----7-(5)-|-7-7-7-----7-(5)-|-7-7-7-----7-7-|
E|-(2)--2-2-2-2---------|-----------------|-----------------|-----------------|---------------|


POST CHORUS

(Burn, burn, burn)
G|-------------------------------|------------------------------------|
D|-------------------------------|------------------------------------|
A|-------------------0--(0)------|------------------5-3h4-0--(0)------|
E|-(3)--3-2--3--2-3----------0-2-|-(3)--3-2--2--0-0---------------0-2-|

(Burn your wicked garden down)
G|-------------------------------|------------------------------------|
D|-------------------------------|------------------------------------|
A|-------------------0--(0)------|------------------5-3h4-0--(0)------|
E|-(3)--3-2--3--2-3----------0-2-|-(3)--3-2--2--0-0---------------0-2-|

(Burn, burn, burn)
G|-------------------------------|------------------------------------|
D|-------------------------------|------------------------------------|
A|-------------------0--(0)------|------------------5-3h4-0--(0)------|
E|-(3)--3-2--3--2-3----------0-2-|-(3)--3-2--2--0-0---------------0-2-|

(Burn your wicked garden to the ground)
G|-------------------------------|--------------------|
D|-------------------------------|--------------------|
A|-------------------0--(0)------|--------------------|
E|-(3)--3-2--3--2-3----------0-2-|-(3)--3-2-2-3-3-4-5-|


REPEAT INTRO RIFF

G|---------------------------------|----------------------------------|
D|---------------------------------|----------------------------------|
A|-------------------------5-0-(4)-|----------------------------------|
E|-3-5-5-3-5-5-3-5-5-3-5-3---------|-3-5-5-3-5-5-3-5-5-3-5-3-(2)--(3)-|

G|---------------------------------|----------------------------------|
D|---------------------------------|----------------------------------|
A|-------------------------5-0-(4)-|----------------------------------|
E|-3-5-5-3-5-5-3-5-5-3-5-3---------|-3-5-5-3-5-5-3-5-5-3-5-3-(2)--(3)-|


VERSE

(Can you feel...)
G|----------------------------|------------------------------|
D|----------------------------|------------------------------|
A|-5-4------------------------|-5-4-------------0-3-4-0------|
E|-----5-3--0-2-3--3--0-3-4-5-|-----5-3--0-2-3-----------(3)-|

(Can you love?)
G|----------------------------|-------------------------------|
D|----------------------------|-------------------------------|
A|-5-4------------------------|-5-4-------------0-3-4-0-0-----|
E|-----5-3--0-2-3--3--0-3-4-5-|-----5-3--0-2-3------------(3)-|

(I wanna run...)
G|---------------------------------|----------------------------------|
D|---------------------------------|----------------------------------|
A|-------------------------5-0-(4)-|----------------------------------|
E|-3-5-5-3-5-5-3-5-5-3-5-3---------|-3-5-5-3-5-5-3-5-5-3-5-3-(2)--(3)-|

(‘Cause I’m alive)
G|---------------------------------|-------------------------------|
D|---------------------------------|-------------------------------|
A|-------------------------5-0-(4)-|-------------------------------|
E|-3-5-5-3-5-5-3-5-5-3-5-3---------|-3-5-5-3-5-5-3-5-5-3-5-5-5-4-3-|


CHORUS

(Can you see just like a child?)
G|----------------------|-----------------|---------------------------|
D|----------------------|-----------------|---------------------------|
A|--------------2-4-(5)-|-5-5-5-5-4-3-(2)-|-2-2-2-2-2-2-2-2-2-2-------|
E|-(2)--2-2-2-2---------|-----------------|---------------------5-4-3-|

(Can you see just what I want?)
G|----------------------|-----------------|---------------------------|
D|----------------------|-----------------|---------------------------|
A|--------------2-4-(5)-|-5-5-5-5-4-3-(2)-|-2-2-2-2-2-2-2-2-2-2-------|
E|-(2)--2-2-2-2---------|-----------------|---------------------5-4-3-|

(Can I bring you back to life?)
G|----------------------|-----------------|-----------------|-----------------|-----------------|
D|----------------------|-----------------|-------5-6-------|-------5-6-------|-------5-6-------|
A|--------------2-4-(5)-|-5-5-5-5-5-6-(7)-|-7-7-7-----7-(5)-|-7-7-7-----7-(5)-|-7-7-7-----7-(5)-|
E|-(2)--2-2-2-2---------|-----------------|-----------------|-----------------|-----------------|

(Are you still alive?)
G|-----------------|-----------------|-----------------|---------------|
D|-------5-6-------|-------5-6-------|-------5-6-------|-------5-6-----|
A|-7-7-7-----7-(5)-|-7-7-7-----7-(5)-|-7-7-7-----7-(5)-|-7-7-7-----7-7-|
E|-----------------|-----------------|-----------------|---------------|


POST CHORUS

(Burn, burn, burn)
G|-------------------------------|------------------------------------|
D|-------------------------------|------------------------------------|
A|-------------------0--(0)------|------------------5-3h4-0--(0)------|
E|-(3)--3-2--3--2-3----------0-2-|-(3)--3-2--2--0-0---------------0-2-|

(Burn your wicked garden down)
G|-------------------------------|------------------------------------|
D|-------------------------------|------------------------------------|
A|-------------------0--(0)------|------------------5-3h4-0--(0)------|
E|-(3)--3-2--3--2-3----------0-2-|-(3)--3-2--2--0-0---------------0-2-|

(Burn, burn, burn)
G|-------------------------------|------------------------------------|
D|-------------------------------|------------------------------------|
A|-------------------0--(0)------|------------------5-3h4-0--(0)------|
E|-(3)--3-2--3--2-3----------0-2-|-(3)--3-2--2--0-0---------------0-2-|

(Burn your wicked garden to the ground)
G|-------------------------------|--------------------------------------|
D|-------------------------------|--------------------------------0-2-2-|
A|-------------------0--(0)------|------------------5-3h4-0--(0)--------|
E|-(3)--3-2--3--2-3----------0-2-|-(3)--3-2--2--0-0---------------------|


OUTRO

G|---------------|---------------|---------------|---------------|
D|-(5)-----------|---------------|-(5)-----------|---------------|
A|------(5)------|------(5)------|------(5)------|------(5)------|
E|-----------(5)-|-(3)-------(5)-|-----------(5)-|-(3)-------(5)-|




( ) - Hold note
  h - Hammer-on

            
            
Suggest correction
Creating personal tab
Creating personal tab
You can edit any tab online and save it as your Personal.

You can edit, replace or remove any tab part or add personal notes – all changes will be seen only by you.

Personal tabs can be accessed anytime from any device, even offline.
Learn more »
Give kudos to tab author, rate the tab!
1 2 3 4 5
comments
print report bad tab
guest
You may want to rate the tab now too:
select rating
Wanna post a correction for this tab? Suggest correction