Oops, an error
Loading. Please wait.

Wicked Garden Tab

version 2
version 2

Whole song

Interactive

54,553 views 162 this week
6 commentsread comments
1 2 3 4 5
x 30
add to favorites
launch autoscroll
font size
0
reset
how to read this tab
guitar tuner
backing track
0:00
0:00
Autoscroll
slow
fast
+/-
esc
set tempo
stop
Author
Wicked Garden
Stone Temple Pilots

Transcribed by JimBonJovi/jjhand

This is a cleaned up version with some of the riffs that were missing,
especially in the Bridge(or Heavy Part).

Thanks to jjhand for some excellent input.


[Intro]
guitar 1
e:--3-----2----3----|--3-----2-------|
B:--3-----3----3----|--3-----3----2--|
G:--0-----2----2----|--0-----2----2--|
D:--0-----0----2----|--0-----0----2--|
A:--X----------0----|--X----------0--|
E:--3---------------|--3-------------| repeat each twice


[Verse] Riff 1(You can P.M. the (5) or the whole note for a bigger sound)
e:-------------------------------------|
B:-------------------------------------|
G:-------------------------------------|
D:-5/7-------7-------7-7-------7-----5-|
A:-5/7-------7-------7-7-------7-----5-|
E:-3/5-(5-5)-5-(5-5)-5-5-(5-5)-5-(5)-3-| repeat as played

guitar 2 during verse:
e:--------------------------------|-------------------------------|
B:--------------------------------|-------------------------------|
G:--------------------------2-0-0-|-------------------------2-0-0-|
D:--------------------------------|-------------------------------|
A:--------------------------------|-------------------------------|
E:--------------------------------|-------------------------------|


Verse Riff 2
e:-------------------------------|
B:-------------------------------|
G:--------------------------7--6-|
D:-5H7-7-7-7-7-7-7--7-7-7---7--7-|
A:-0-0-0-0-0-0-0-0--0-0-0---0----|
E:-------------------------------|repeat as played


["Chorus"] Part 1:
e:-----------------------------------------------------------|
B:------------3----3-3---------------------------------------|
G:------------2----2-2-----4---4-4---4---4-4---4-4---4-4-4---|
D:--4---4-----0----0-0-----4---4-4---4---4-4---4-4---4-4-4-4-|
A:--4---4-----0----0-0---0-2---2-2---2---2-2---2-2---2-2-2-4-|
E:--2---2---0----------------------------------------------2-|repeat x2

    can you see........            just like a child....


"Chorus" Part 2:
e|----4---|
B|----3---|
G|----4---|
D|----2---|
A|--------|
E|--------|repeat as needed
  ali...yeah yeah yeah yeah yeah


[Bridge:] Repeat as played
e:--------------------------------------------------------------|
B:--------------------------------------------------------------|
G:--------------------------------------------------------------|
D:--5---5-4---5---4-5---7--7--xx----5-4---5--7----10---7--7--xx-|
A:--5---5-4---5---4-5---7--7--xx----5-4---5--7----10---7--7--xx-|
E:--3---3-2---3---2-3---5--5--xx--0-3-2---3--5----8----5--5--xx-|
     burn, burn, burn....         burn your wicked garden down

Repeat the intro as the outro.

Any questions or comments? Please feel free to let me know.
Enjoy and Keep The Faith!



************************************

| x    Dead note
| (n)  Ghost note
| /    Slide up  

************************************
Suggest correction
comments
print report bad tab
6 comments total. Showing first comments.
+3 reply
wes_jett2008 505 Mar 31, 2009 08:52 PM

Great tab,I've used this one to play the song for a few months now.

+2 reply
Bueeh 10 Sep 20, 2013 05:08 PM

Hey, your tabs are great, but I think I'd correct the part you say "guitar 2 during verse" for this one:

guitar 2 during verse:
e:--------------------------3-3-3-|-------------------------3-3-3-|
B:--------------------------0-0-0-|-------------------------0-0-0-|
G:--------------------------0-0-0-|-------------------------0-0-0-|
D:--------------------------5-5-5-|-------------------------5-5-5-|
A:--------------------------0-0-0-|-------------------------0-0-0-|
E:--------------------------------|-------------------------------|

+1 reply
The Fourth 10 Apr 18, 2016 02:36 AM

Great tab!

guest
You may want to rate the tab now too:
select rating
Wanna post a correction for this tab? Suggest correction