Oops, an error
Loading. Please wait.

Wicked Garden Bass Tab

version 3
version 3

Whole song

  • Combined best aspects of other tabs to be more correct.

Interactive

37 views 1 this week
no commentswrite comment
1 2 3 4 5
3 more votes to show rating
add to favorites
launch autoscroll
font size
0
reset
guitar tuner
Autoscroll
slow
fast
+/-
esc
set tempo
stop
Help us to improve Ultimate-Guitar.com Take our survey!
×
Author
Difficulty
intermediate
About this tab version
Combined best aspects of other tabs to be more correct. Was this info helpful? Yes No
Stone Temple Pilots - Wicked Garden
Standard Bass tuning
tabbed by jjhand

I took some elements of the other bass tabs from this song and wrote out
one that is easier to follow. This song is challenging on bass, with many 
off-beat 16th note patterns so I hope this helps. Please rate or comment.


Intro
G|-----------------|----------------|------------------|--------------|
D|-----------------|----------------|------------------|--------------|
A|-10--------------|-----5----------|-10---------------|----5---------|
E|------10---5-----|-3-------5------|------10---5------|-3------5-hold|



VERSE:

Verse Riff 1, played x2
G|---------------------------------|---------------------------------|
D|---------------------------------|---------------------------------|
A|-------------------------5p0-4---|---------------------------------|
E|-3h5-5-3h5-5-5-5-5-3h5-3---------|-3h5-5-3h5-5-5-5-5-3h5-0-2---3---|

Verse Riff 2, played x2
G|--------------------------------|------------------------------|
D|--------------------------------|------------------------------|
A|-5-4----------------------------|-5-4------------------3-------|
E|-----5-3---0-2h3---5---0-3h4-5--|-----5-3---0-2h3---5----5---3-|


Play Verse Riff 1 Again 2x 
Play Verse Riff 2 Again 2x 


Play Verse Riff 1 Again 2x, but ending bar becomes:
G|---------------------------------|
D|---------------------------------|
A|---------------------------------|
E|-3h5-5-3h5-5-5-5-5-3h5-3-5-4-3-2-|




CHORUS - play 3x, offbeat 16th rhythm

   1      2       3      4         1      2       3       4
G|-------------------------------|--------------------------------|
D|-------------------------------|--------------------------------|
A|------------3-4-5--5-5-5-5-4-3-|-2--2-2-2-2-2-2-2-2-2-2-2-------|
E|-2--2-2-2-2--------------------|--------------------------5-4-3-|

Chorus Ending                      
G|-------------------------------|--------------------------------|
D|-------------------------------|----------5-6------------5-6----|
A|------------3-4-5--5-5-5-5-5-5-|-5--7-7-7-----7-5--7-7-7-----7--|
E|-2--2-2-2-2--------------------|--------------------------------|

G|--------------------------------|
D|----------5-6-------------------|
A|-5--7-7-7-----7-7---------------|
E|--------------------------------|



BRIDGE -
G|--------------------------|--------------------------|
D|--------------------------|--------------------------|
A|--------------------------|-----------5-4------------|
E|-3--3-2-3--2-3--5--5--0-2-|-3--3-2-3-------5--5--0-2-|

G|--------------------------|--------------------------|
D|--------------------------|--------------------------|
A|--------------------------|-----------5-4------------|
E|-3--3-2-3--2-3--5--5--0-2-|-3--3-2-0-------5--5--0-2-|

G|--------------------------|--------------------------|
D|--------------------------|--------------------------|
A|--------------------------|-----------5-4------------|
E|-3--3-2-3--2-3--5--5--0-2-|-3--3-2-3-------5--5--0-2-|


Bridge Ending
G|--------------------------|--------------------------|
D|--------------------------|--------------------------|
A|--------------------------|--------------------------|
E|-3--3-2-3--2-3--5--5--0-2-|-3--3-2-3--4-5------------|




Play Verse Again, same as before



Play Chorus Again, but hold out Chorus Ending like this:

Chorus Ending                      
G|-------------------------------|--------------------------------|
D|-------------------------------|----------5-6------------5-6----|
A|------------3-4-5--5-5-5-5-5-5-|-5--7-7-7-----7-5--7-7-7-----7--|
E|-2--2-2-2-2--------------------|--------------------------------|

G|--------------------------------|--------------------------------|
D|----------5-6------------5-6----|----------5-6------------5-6----|
A|-5--7-7-7-----7-5--7-7-7-----7--|-5--7-7-7-----7-5--7-7-7-----7--|
E|--------------------------------|--------------------------------|

G|--------------------------------|
D|----------5-6-------------------|
A|-5--7-7-7-----7-7---------------|
E|--------------------------------|


Play Bridge Again


Play Intro Again to end song


Key:
p   pull-off
h   hammer-on
Suggest correction
Give kudos to tab author, rate the tab!
1 2 3 4 5
comments
print report bad tab
guest
You may want to rate the tab now too:
select rating
Wanna post a correction for this tab? Suggest correction