Oops, an error
Loading. Please wait.

Cuestick Chavez Bass Tab

66 views 3 this week
no commentswrite comment
1 2 3 4 5
please rate
add to favorites
launch autoscroll
font size
0
reset
guitar tuner
Tab Pro tools
  • play this tab
  • loop segment
  • change instrument
  • show fretboard
  • metronome
×
Best way to learn
"Cuestick Chavez"
Autoscroll
slow
fast
+/-
esc
set tempo
stop
Contributor
Difficulty
intermediate
------------------------------------------------------------------------------
                             Cuestick Chavez - Stoned
------------------------------------------------------------------------------
Tabbed by: filiot96
E-mail: filiotrix@gmail.com

Tuning:Standard Tuning

Intro#
G|-------------------------------------------|
D|-------------------------------------------|
A|-1010-99-77-55-77-55-44-22-33-22----555555-|
E|---------------------------------5-3-------|

G|-------------------------------------------|
D|-------------------------------------------|
A|-1010-99-77-55-77-55-44-22-3-2-5-3---------|
E|-----------------------------------333333--|

Verse#2x
G|-------------------------------------------|-End-after-2-time-|
D|-------------------------------------------|-5-5-555555-------|
A|-1010-99-77-55-77-55-44-22-33-22----555555-|------------------|
E|---------------------------------5-3-------|------------------|

Chorus#
G|---------------------------------------------------------------------------|
D|---------------------------------------------------------------------------|
A|-------------------55555555-3333-5-------------------55555555-3333-5555----|
E|-00000000-33333333-----------------00000000-33333333-----------------------|

Intro#

Verse.2#2x
G|-------------------------------------------|
D|-------------------------------------------|
A|-1010-99-77-55-77-55-44-22-33-22----555555-|
E|---------------------------------5-3-------|

Bass-Solo#
G|---7-5p4-5454------7-5p4-5754------7-5p4-5454----------------|
D|-5------------75-5------------7-5-5-----------75-55-44-22----|
A|----------------------------------------------------------33-|
E|-------------------------------------------------------------|

Bridge#
G|---------------------------------------------------------------|
D|---------------------------------------------------------------|
A|-3-333---------5-555-33333333--3333333-----------------333-555-|
E|--------3-333--------------------------3333333-5555555---------|

Chorus#

Outro#
G|---7-5p4-5454------7-5p4-5754------|
D|-5------------75-5------------77-5-|
A|-----------------------------------|
E|-----------------------------------|


| /  slide up
| \  slide down
| h  hammer-on
| p  pull-off
| ~  vibrato
| +  harmonic
| x  Mute note
=============================================================================

http://www.discogs.com/artist/Stoned
www.myspace.com/stonedrocks
comments
We did not receive enough feedback on this tab! Please rate:
print report bad tab
1 2 3 4 5
I want to post or [tab]
guest
You may want to rate the tab now too:
select rating
Please do not post tabs as comments. Select "correction" instead!