Oops, an error
Loading. Please wait.

Fantasy Trip Bass Tab

43 views 1 this week
no commentswrite comment
1 2 3 4 5
please rate
add to favorites
launch autoscroll
font size
0
reset
guitar tuner
Autoscroll
slow
fast
+/-
esc
set tempo
stop
Help us to improve Ultimate-Guitar.com Take our survey!
×
Author
Difficulty
novice
-----------------------------------------------------------------------------
                             Fantasy Trip - Stoned
-----------------------------------------------------------------------------
Tabbed by: filiot96 
E-mail: filiotrix@gmail.com

Tuning:Standard Tuning

Intro#
G|------------------------------------------------------------|
D|------------------------------------------------------------|
A|-777777-----444444------777777------444444-------------9764-|
E|-------7777--------5555--------7777--------5555-777777------|

Verse#2x
G|-------------------------------------------------------------------------|
D|-------------------------------------------------------------------------|
A|-77777777---------77777777----------77777777----------44444444-----------|
E|---------55555555----------77777777----------44444444----------55557777--|

Intro#

Verse.2#
G|-----------------------------------------------------------------------|
D|-----------------------------------------------------------------------|
A|-77777777---------67777777----------77777777----------44444444---------|
E|---------55555555----------77777777----------44444444----------55557777|

Bridge#2x
G|------------------------------|
D|------------------------------|
A|-4-4444--------7-7777---------|
E|--------5-5555--------7-7777--|

Chorus#2x
G|---------------------------------------------------------|
D|---------------------------------------------------------|
A|-7-7777--------4-4444--------4-4444----------------------|
E|--------7-7777--------5-5555--------7-7777-5-5555-7-7777-|

Outro#
G|--------------------------------------------------|
D|--------------------------------------------------|
A|-777777------444444------777777------444444-------|
E|--------7777--------5555--------7777--------555555|


| /  slide up
| \  slide down
| h  hammer-on
| p  pull-off
| ~  vibrato
| +  harmonic
| x  Mute note
=============================================================================

www.discogs.com/artist/Stoned
www.myspace.com/stonedrocks
Suggest correction
Give kudos to tab author, rate the tab!
1 2 3 4 5
comments
print report bad tab
guest
You may want to rate the tab now too:
select rating
Wanna post a correction for this tab? Suggest correction