Oops, an error
Loading. Please wait.

Rock Song Bass Tab

43 views 1 this week
no commentswrite comment
1 2 3 4 5
please rate
add to favorites
launch autoscroll
font size
0
reset
guitar tuner
Tab Pro tools
  • play this tab
  • loop segment
  • change instrument
  • show fretboard
  • metronome
×
Best way to learn
"Rock Song"
Autoscroll
slow
fast
+/-
esc
set tempo
stop
Contributor
Difficulty
intermediate
-----------------------------------------------------------------------------
                             Rock Song - Stoned
-----------------------------------------------------------------------------
Tabbed by:filiot96
E-mail: filiotrix@gmail.com

Tuning:Standard Tuning


Main-Riff#4x
G|---7--4h54---------------------------4h5-7p5-|
D|-55-5-----5---7--4h54-----5----4h5-55--------|
A|------------55-5-----5-33--3-55--------------|
E|---------------------------------------------|

verse#4x
G|--------------------------------------|
D|--------------------------------------|
A|----------5-555555-3-33-5-55----------|
E|-3-333333--------------------3-333333-|

Chorus#
G|-------------------------------------------------------|
D|-------------------------------------------------------|
A|---------333333---------555555---------333333-55555555-|
E|-0-00000--------0-00000--------0-00000-----------------|

Main-Riff#4x

Bridge
G|---------3x------------------|--------4th-time-------|
D|-----------------------------|-----------------------|
A|-333333-555555---------------|-333333-555555---------|
E|---------------000000-333333-|--------------33333333-|

Chorus#

Main-Riff#

Outro#
G|---7--4h54----------------------------------|
D|-55-5-----5---7--4h54-----5----4h5-555555---|
A|------------55-5-----5-33--3-55-------------|
E|--------------------------------------------|


| /  slide up
| \  slide down
| h  hammer-on
| p  pull-off
| ~  vibrato
| +  harmonic
| x  Mute note
=============================================================================

http://www.myspace.com/stonedrocks
http://www.discogs.com/artist/Stoned
comments
We did not receive enough feedback on this tab! Please rate:
print report bad tab
1 2 3 4 5
I want to post or [tab]
guest
You may want to rate the tab now too:
select rating
Please do not post tabs as comments. Select "correction" instead!