Oops, an error
Loading. Please wait.

Im The Mountain intro tab

version 2
version 2

Intro

Whole song

10,623 views 12 this week
2 commentsread comments
1 2 3 4 5
x 3
add to favorites
×
Save as Personal and add changes to this tab that will be seen only by you. Learn more ›
×
You can save this tab as Personal to edit and correct it or add notes. All changes will be seen only by you. Learn more »
launch autoscroll
font size
0
reset
how to read this tab
guitar tuner
edit
Autoscroll
slow
fast
+/-
esc
set tempo
stop
"Headley Grange"  (0:00-2:05)         x12
 c|-----------------------------2-----|
 g|-----5-------5-------5---------5---|
d#|---4---4---4---4---4---4---4-----4-|
A#|-2-------2-------2-----------------|
 F|-------------------------3---------|

d#|-----7-------7--------5-------7---|
A#|---7---7---7---7----5---5---7---7-|
 F|-5-------5--------3-------5-------|

 c|--------------------------------|
 g|-----5-------5-------5-------5--|
d#|---4---4---4---4---4---4---4---4|
A#|-2-------2-------2-------2------|

d#|-----7-------7--------5-------7---|
A#|---7---7---7---7----5---5---7---7-|
 F|-5-------5--------3-------5-------|
                                      x3
 c|-----------------------------2-----|
 g|-----5-------5-------5---------5---|
d#|---4---4---4---4---4---4---4-----4-|
A#|-2-------2-------2-----------------|
 F|-------------------------3---------|

 c|---------------------2-------2---|
 g|-----5-------5-----------------5-|
#d|---4---4---4---4---4-------4-----|
A#|-2-------2-------2---------------|
 F|-------------------------3-------|
                                      x8
 c|-----------------------------2-----|
 g|-----5-------5-------5---------5---|
d#|---4---4---4---4---4---4---4-----4-|
A#|-2-------2-------2-----------------|
 F|-------------------------3---------|

d#|-----7-------7--------5-------7---|
A#|---7---7---7---7----5---5---7---7-|
 F|-5-------5--------3-------5-------|

 c|--------------------------------|
 g|-----5-------5-------5-------5--|
d#|---4---4---4---4---4---4---4---4|
A#|-2-------2-------2-------2------|
Slower
d#|-----7-------7--------5-------7---|
A#|---7---7---7---7----5---5---7---7-|
 F|-5-------5--------3-------5-------|

 c|-2-|
 g|-5-|
d#|-4-|
A#|-2-|
 F|-3-|

(2:09)

 c|---------------------------------------------|
 g|---------------------------------------------|
d#|---9-9-7------------------7--7-7--9----------|
A#|-9-------9--9-7-9-7-5-----5--5-5--7--------5-|
 F|-7--------------------7-5------------5-7-5---|
 C|-0-------------------------------------------|

 c|---------------------------------------------|
 g|-------------------------------------8-8--8-8|
d#|---9-9-7------------------7--7-7--9--7-7--7-7|
A#|-9-------9--9-7-9-7-5-----5--5-5--7----------|
 F|-7--------------------7-5--------------------|
 C|-0-------------------------------------------|

 c|---------------------------------------------|
 g|---------------------------------------------|
d#|---9-9-7------------------7--7-7--9----------|
A#|-9-------9--9-7-9-7-5-----5--5-5--7--------5-|
 F|-7--------------------7-5------------5-7-5---|
 C|-0-------------------------------------------|

 c|--------------------------------------------------|
 g|------------------------------------10--10-10-10--|
d#|---9-9-7------------------7---9---11-7---7-7-7----|
A#|-9-------9--9-7-9-7-5-----5---7---9---------------|
 F|-7--------------------7-5-------------------------|
 C|-0------------------------------------------------|
Suggest correction
Creating personal tab
Creating personal tab
You can edit any tab online and save it as your Personal.

You can edit, replace or remove any tab part or add personal notes – all changes will be seen only by you.

Personal tabs can be accessed anytime from any device, even offline.
Learn more »
Give kudos to tab author, rate the tab!
1 2 3 4 5
comments
print report bad tab
2 comments total.
0 reply
willzchannell 20 Mar 02, 2013 07:34 AM

c |-7-
g |-7-
d#|-9-
A#|-9-
F |-7-
C |-x-

surely that is the chord played at the start of each line after the headley grange part?

0 reply
Fryta 58 Mar 03, 2013 05:04 AM

No, it's just :
c|---
g|---
d#|---
A#|-9-
F|-7-
C|-0-
Listen to the track carefully. Your chord doesn't sound good in that part.
I tried a lot of chords and only that is good :P If you find another mistake in that tab just write and i will do something with that :) And sorry if i wrote something wrong 'cause my english isn't very good yet :P

guest
You may want to rate the tab now too:
select rating
Wanna post a correction for this tab? Suggest correction